PrimaNota.ru - самый крупный в мире бесплатный архив песенных текстов, аккордов, табулатур и нот


Seether - The gift I have the karma and effect book - таба, видео

Регистрация Запомнить меня
Войти через:  Facebook Google Twitter Vk Yandex Mail.ru

Seether - The gift I have the karma and effect book - таба, видео

Печатать
Просмотров: 162
Уроки эстрадного вокала в Санкт-Петербурге


i have the book but i only have limited time during the day to put up the tabs and
chords so be patient with me and i will try to find time when i can do some more.
you will have to listen to the song to find out the timing, and to find out how many
times to play it.
thanks

Intro
e--------------------------------
b--------------------------------
g----5---------4------2--2-0--0--
d--7--7-----5---5----3-3----3--3-
a-7-7--7---5-5---5--3---3----3---
e--------------------------------

e----7-----5-----------
g-----8-----5--5---5/9-
d--9-----7-------------
a-7-----5--------------
e----------------------


Добавлено: 14.01.2014
Другие материалы по этой песне:
  • Аккорды и текст

Страница создана 14.01.2014
http://primanota.ru/seether/gift-i-have-karma-and-effect-book-chords.htm
Привет, Гость.
Предлагаем пройти революционный курс по гитаре.
Подарок от PrimaNota.Ru, забирай!