PrimaNota.ru - самый крупный в мире бесплатный архив песенных текстов, аккордов, табулатур и нот


Seether - Diseased - текст песни, таба, бас-таба, видео

Регистрация Запомнить меня
Войти через:  Facebook Google Twitter Vk Yandex Mail.ru

Seether - Diseased - текст песни, таба, бас-таба, видео

Печатать
Просмотров: 515
This is the acoustic version from One Cold Night, which is an amazing cd.
I'm not certain this is 100% accurate but it's pretty close, enjoy.
Tuning - (low to high) DADGBe

|---------------------------------------------------|
|---------------------------------------------------|
|---------------------------------------------------|
|------12~----------12-13-12------12~---5-5-5-5-5-5-|
|----0-----------10-------------0-------6-6-6-6-6-6-|
|--0--------0-10--------------0-------0-------------|

|--13-13-13-13-13-13-12-12-12-13-13-13-------------------------------------|
|--10-10-10-10-10-10-10-10-10-10-10-10-12-12-12-12-12-12-13-13-13-10-10-10-|
|--------------------------------------12-12-12-12-12-12-12-12-12-10-10-10-|
|--------------------------------------------------------------------------|
|--------------------------------------------------------------------------|
|--------------------------------------------------------------------------|

|--------------------------------------------------------|
|--------------------------------------------------------|
|--------------------------------------------------------|
|--0-0--0--0-0---0-0--0--0-0---0-0--0--0-0---1-1--1--1-1-|
|--0-0--0--0-0---0-0--0--0-0---0-0--0--0-0---1-1--1--1-1-|
|--0-0--0--0-0---0-0--0--0-0---0-0--0--0-0---1-1--1--1-1-|

|----------------------------------|
|----------------------------------|
|----------------------------------|
|--5-5-5-5-5-5-5-5-3-3-3-3-6-6-6-6-|
|--5-5-5-5-5-5-5-5-3-3-3-3-6-6-6-6-|
|--5-5-5-5-5-5-5-5-3-3-3-3-6-6-6-6-|

|--13-13-13-13-13-13-12-12-12-13-13-13-------------------------------------|
|--10-10-10-10-10-10-10-10-10-10-10-10-12-12-12-12-12-12-13-13-13-10-10-10-|
|--------------------------------------12-12-12-12-12-12-12-12-12-10-10-10-|
|--------------------------------------------------------------------------|
|--------------------------------------------------------------------------|
|--------------------------------------------------------------------------|

|--0-0-0-0-0-0-0-0-0-0-0-0---------------------------------------|
|--3-3-3-3-3-3-3-3-3-3-3-3---------------------------------------|
|--2-2-2-2-2-2-2-2-2-2-2-2---------------------------------------|
|--0-0-0-0-0-0-0-0-0-0-0-0-0-3-0-5-5-5-5-5-5-5-5-3-3-3-3-5-5-5-5-|
|--0-0-0-0-0-0-0-0-0-0-0-0-0-3-0-5-5-5-5-5-5-5-5-3-3-3-3-5-5-5-5-|
|--0-0-0-0-0-0-0-0-0-0-0-0-0-3-0-5-5-5-5-5-5-5-5-3-3-3-3-5-5-5-5-|

|----------------------------------|
|----------------------------------|
|--4-4-4-4-4-4-4-4-----------------|
|--4-4-4-4-4-4-4-4-3-3-3-3-1-1-1-1-|
|--2-2-2-2-2-2-2-2-3-3-3-3-1-1-1-1-|
|------------------3-3-3-3-1-1-1-1-|

|--13-13-13-13-13-13-12-12-12-13-13-13-------------------------------------|
|--10-10-10-10-10-10-10-10-10-10-10-10-12-12-12-12-12-12-13-13-13-10-10-10-|
|--------------------------------------12-12-12-12-12-12-12-12-12-10-10-10-|
|--------------------------------------------------------------------------|
|--------------------------------------------------------------------------|
|--------------------------------------------------------------------------|

|--0-0-0-0-0-0-0-0-0-0-0-0---------------------------------------|
|--3-3-3-3-3-3-3-3-3-3-3-3---------------------------------------|
|--2-2-2-2-2-2-2-2-2-2-2-2---------------------------------------|
|--0-0-0-0-0-0-0-0-0-0-0-0-0-3-0-5-5-5-5-5-5-5-5-3-3-3-3-5-5-5-5-|
|--0-0-0-0-0-0-0-0-0-0-0-0-0-3-0-5-5-5-5-5-5-5-5-3-3-3-3-5-5-5-5-|
|--0-0-0-0-0-0-0-0-0-0-0-0-0-3-0-5-5-5-5-5-5-5-5-3-3-3-3-5-5-5-5-|

|--------------------------------------------------------|
|--------------------------------------------------------|
|--------------------------------------------------------|
|--0-0--0--0-0---0-0--0--0-0---0-0--0--0-0---1-1--1--1-1-|
|--0-0--0--0-0---0-0--0--0-0---0-0--0--0-0---1-1--1--1-1-|
|--0-0--0--0-0---0-0--0--0-0---0-0--0--0-0---1-1--1--1-1-|

I'm not certain it's 100% accurate but it's pretty close, enjoy.
Добавлено: 10.06.2012
Другие материалы по этой песне:

Страница создана 27.02.2012
http://primanota.ru/seether/diseased-chords.htm
Привет, Гость.
Предлагаем пройти революционный курс по гитаре.
Подарок от PrimaNota.Ru, забирай!