PrimaNota.ru - самый крупный в мире бесплатный архив песенных текстов, аккордов, табулатур и нот


Secret Garden - That Man - Hyun Bin - таба, видео

Регистрация Запомнить меня
Войти через:  Facebook Google Twitter Vk Yandex Mail.ru

Secret Garden - That Man - Hyun Bin - таба, видео

Печатать
Просмотров: 174
-------------------------------------------------------------------------------
                             Secret Garden - Hyun Bin - That man
-------------------------------------------------------------------------------
Tabbed by:Matiszszumlu
E-mail:lilianaszabo97@gmail.com

Tuning:

Verse 1

e|---------------------------------------------------------------------------|
B|--------5--3--6-5----------------------------------------------------------|
G|----0--------------2--7--5-7----9-7-5--------------------------------------|
D|---------------------------------------------------------------------------|
A|---------------------------------------------------------------------------|
E|---------------------------------------------------------------------------|

e|---------------------------------------------------------------------------|
B|--------5--3--6-5----------------------------------------------------------|
G|----0--------------2--7--5-7----9-7-5--------------------------------------|
D|---------------------------------------------------------------------------|
A|---------------------------------------------------------------------------|
E|---------------------------------------------------------------------------|

e|---------------------------------------------------------------------------|
B|------8-8-10--6--5-6---3-5-6----6-8-5--6-5---------------------------------|
G|--5------------------------------------------------------------------------|
D|---------------------------------------------------------------------------|
A|---------------------------------------------------------------------------|
E|---------------------------------------------------------------------------|

e|---------------------------------------------------------------------------|
B|-------------5--3--6-5-----------5-3-1-------------------------------------|
G|----0------------------2--7--5-7-------------------------------------------|
D|---------------------------------------------------------------------------|
A|---------------------------------------------------------------------------|
E|---------------------------------------------------------------------------|

************************************

| /   slide up
| \   slide down
| h   hammer-on
| p   pull-off
| ~   vibrato
| +   harmonic
| x   Mute note
| b   Bend
| pb  Pre-bend
| br  Bend release
| pbr Pre-bend release
| brb Bend release bend

************************************
Добавлено: 25.07.2015
Другие материалы по этой песне:
  • Аккорды и текст

Страница создана 25.07.2015
http://primanota.ru/secret-garden/that-man-hyun-bin-chords.htm
Привет, Гость.
Предлагаем пройти революционный курс по гитаре.
Подарок от PrimaNota.Ru, забирай!