PrimaNota.ru - самый крупный в мире бесплатный архив песенных текстов, аккордов, табулатур и нот


Searchers - Where Have All The Flowers Gone - бас-таба, видео

Регистрация Запомнить меня
Войти через:  Facebook Google Twitter Vk Yandex Mail.ru

Searchers - Where Have All The Flowers Gone - бас-таба, видео

Печатать
Просмотров: 84
Where Have All The Flowers Gone?
The Searchers
Written by Pete Seeger; released as a single with "Money" as the B-side,
and on the album "Meet The Searchers".

Intro:
G|------- ------- ------- -------|------- ------- ------- -------|
D|-------------------------------|-------------------------------|
A|-------------------------------|-------------------------------|
E|-------------------------------|-------------------------------|
                                 (lead guitar)


G|------- ------- ------- -------|------- ------- ------- -------|
D|------------6-------9---6------|--------------------6----------|
A|7------------------------------|------------7-----------7------|
E|-------------------------------|9------------------------------|



G|------- ----6-- ----9-- 6------|------- ------- ------- -------|
D|7------------------------------|9-------7-------6--------------|
A|-------------------------------|------------------------9------|
E|-------------------------------|-------------------------------|


Verse:
G|------- ------- ------- -------|------- ------- ------- -------|
D|------------6-------9---6------|--------------------6----------|
A|7------------------------------|------------7-----------7------|
E|-------------------------------|9------------------------------|
          Where have all      the flowers     gone


G|------- ----6-- ----9-- 6------|------- ------- ------- -------|
D|7------------------------------|9-------7-------6--------------|
A|-------------------------------|------------------------9------|
E|-------------------------------|-------------------------------|
        a long            time    pas    -    sing,


G|------- ------- ------- -------|------- ------- ------- -------|
D|------------6-------9---6------|--------------------6----------|
A|7------------------------------|------------7-----------7------|
E|-------------------------------|9------------------------------|
          Where have all      the flowers     gone


G|------- ----6-- ----9-- 6------|------- ------- ------- -------|
D|7------------------------------|9-------7-------6--------------|
A|-------------------------------|------------------------9------|
E|-------------------------------|-------------------------------|
        a long    time        a - go?


G|------- ------- ------- -------|------- ------- ------- -------|
D|------------6-------9---6------|--------------------6----------|
A|7------------------------------|------------7-----------7------|
E|-------------------------------|9------------------------------|
          Where have all      the flowers     gone?


G|------- ----6-- ----9-- 6------|------- ------- ------- -------|
D|7------------------------------|9-------7-------6--------------|
A|-------------------------------|------------------------9------|
E|-------------------------------|-------------------------------|
  Young girls     picked them,    eve  -  ry  one.


G|------- ------- ----6-- -------|------- ------- ------- -------|
D|------------7-----------7------|------------6-------9---6------|
A|9------------------------------|7------------------------------|
E|-------------------------------|-------------------------------|
          When    will    they    e - ver     learn,


G|------- ----6-- ----9-- 6------|------- ------- ------- -------|
D|7------------------------------|9-------7-------6--------------|
A|-------------------------------|------------------------9------|
E|-------------------------------|-------------------------------|
          when    will    they    e           -           ver


G|------- ------- ------- -------|------- ------- ------- -------|
D|------------6-------9---6------|9-------7-------6--------------|
A|7------------------------------|------------------------9------|
E|-------------------------------|-------------------------------|
  learn?

Verse:
G|------- ------- ------- -------|------- ------- ------- -------|
D|------------6-------9---6------|--------------------6----------|
A|7------------------------------|------------7-----------7------|
E|-------------------------------|9------------------------------|
          Where have all      the young girls gone


G|------- ----6-- ----9-- 6------|------- ------- ------- -------|
D|7------------------------------|9-------7-------6--------------|
A|-------------------------------|------------------------9------|
E|-------------------------------|-------------------------------|
        a long            time    pas    -    sing,


G|------- ------- ------- -------|------- ------- ------- -------|
D|------------6-------9---6------|--------------------6----------|
A|7------------------------------|------------7-----------7------|
E|-------------------------------|9------------------------------|
          Where have all      the young girls gone


G|------- ----6-- ----9-- 6------|------- ------- ------- -------|
D|7------------------------------|9-------7-------6--------------|
A|-------------------------------|------------------------9------|
E|-------------------------------|-------------------------------|
        a long    time        a - go?


G|------- ------- ------- -------|------- ------- ------- -------|
D|------------6-------9---6------|--------------------6----------|
A|7------------------------------|------------7-----------7------|
E|-------------------------------|9------------------------------|
          Where have all      the young girls gone?


G|------- ----6-- ----9-- 6------|------- ------- ------- -------|
D|7------------------------------|9-------7-------6--------------|
A|-------------------------------|------------------------9------|
E|-------------------------------|-------------------------------|
  Gone    to  young   men,        eve  -  ry  one.


G|------- ------- ----6-- -------|------- ------- ------- -------|
D|------------7-----------7------|------------6-------9---6------|
A|9------------------------------|7------------------------------|
E|-------------------------------|-------------------------------|
          When    will    they    e - ver     learn,


G|------- ----6-- ----9-- 6------|------- ------- ------- -------|
D|7------------------------------|9-------7-------6--------------|
A|-------------------------------|------------------------9------|
E|-------------------------------|-------------------------------|
          when    will    they    e           -           ver


G|------- ------- ------- -------|------- ------- ------- -------|
D|------------6-------9---6------|9-------7-------6--------------|
A|7------------------------------|------------------------9------|
E|-------------------------------|-------------------------------|
  learn?

Verse:
G|------- ------- ------- -------|------- ------- ------- -------|
D|------------6-------9---6------|--------------------6----------|
A|7------------------------------|------------7-----------7------|
E|-------------------------------|9------------------------------|
          Where have all      the young men   gone


G|------- ----6-- ----9-- 6------|------- ------- ------- -------|
D|7------------------------------|9-------7-------6--------------|
A|-------------------------------|------------------------9------|
E|-------------------------------|-------------------------------|
        a long            time    pas    -    sing,


G|------- ------- ------- -------|------- ------- ------- -------|
D|------------6-------9---6------|--------------------6----------|
A|7------------------------------|------------7-----------7------|
E|-------------------------------|9------------------------------|
          Where have all      the young men   gone


G|------- ----6-- ----9-- 6------|------- ------- ------- -------|
D|7------------------------------|9-------7-------6--------------|
A|-------------------------------|------------------------9------|
E|-------------------------------|-------------------------------|
        a long    time        a - go?


G|------- ------- ------- -------|------- ------- ------- -------|
D|------------6-------9---6------|--------------------6----------|
A|7------------------------------|------------7-----------7------|
E|-------------------------------|9------------------------------|
          Where have all      the young men   gone?


G|------- ----6-- ----9-- 6------|------- ------- ------- -------|
D|7------------------------------|9-------7-------6--------------|
A|-------------------------------|------------------------9------|
E|-------------------------------|-------------------------------|
  Gone    to  sol  -  diers,      eve  -  ry  one.


G|------- ------- ----6-- -------|------- ------- ------- -------|
D|------------7-----------7------|------------6-------9---6------|
A|9------------------------------|7------------------------------|
E|-------------------------------|-------------------------------|
          When    will    they    e - ver     learn,


G|------- ----6-- ----9-- 6------|------- ------- ------- -------|
D|7------------------------------|9-------7-------6--------------|
A|-------------------------------|------------------------9------|
E|-------------------------------|-------------------------------|
          when    will    they    e           -           ver


G|------- ------- ------- -------|------- ------- ------- -------|
D|------------6-------9---6------|9-------7-------6--------------|
A|7------------------------------|------------------------9------|
E|-------------------------------|-------------------------------|
  learn?

Verse:
G|------- ------- ------- -------|------- ------- ------- -------|
D|------------6-------9---6------|--------------------6----------|
A|7------------------------------|------------7-----------7------|
E|-------------------------------|9------------------------------|
          Where have all      the soldiers    gone


G|------- ----6-- ----9-- 6------|------- ------- ------- -------|
D|7------------------------------|9-------7-------6--------------|
A|-------------------------------|------------------------9------|
E|-------------------------------|-------------------------------|
        a long            time    pas    -    sing,


G|------- ------- ------- -------|------- ------- ------- -------|
D|------------6-------9---6------|--------------------6----------|
A|7------------------------------|------------7-----------7------|
E|-------------------------------|9------------------------------|
          Where have all      the soldiers    gone


G|------- ----6-- ----9-- 6------|------- ------- ------- -------|
D|7------------------------------|9-------7-------6--------------|
A|-------------------------------|------------------------9------|
E|-------------------------------|-------------------------------|
        a long    time        a - go?


G|------- ------- ------- -------|------- ------- ------- -------|
D|------------6-------9---6------|--------------------6----------|
A|7------------------------------|------------7-----------7------|
E|-------------------------------|9------------------------------|
          Where have all      the soldiers    gone?


G|------- ----6-- ----9-- 6------|------- ------- ------- -------|
D|7------------------------------|9-------7-------6--------------|
A|-------------------------------|------------------------9------|
E|-------------------------------|-------------------------------|
  Gone    to  grave - yards,      eve  -  ry  one.


G|------- ------- ----6-- -------|------- ------- ------- -------|
D|------------7-----------7------|------------6-------9---6------|
A|9------------------------------|7------------------------------|
E|-------------------------------|-------------------------------|
          When    will    they    e - ver     learn,


G|------- ----6-- ----9-- 6------|------- ------- ------- -------|
D|7------------------------------|9-------7-------6--------------|
A|-------------------------------|------------------------9------|
E|-------------------------------|-------------------------------|
          when    will    they    e           -           ver


G|------- ------- ------- -------|------- ------- ------- -------|
D|------------6-------9---6------|9-------7-------6--------------|
A|7------------------------------|------------------------9------|
E|-------------------------------|-------------------------------|
  learn?

Verse:
G|------- ------- ------- -------|------- ------- ------- -------|
D|------------6-------9---6------|--------------------6----------|
A|7------------------------------|------------7-----------7------|
E|-------------------------------|9------------------------------|
          Where have all      the graveyards  gone


G|------- ----6-- ----9-- 6------|------- ------- ------- -------|
D|7------------------------------|9-------7-------6--------------|
A|-------------------------------|------------------------9------|
E|-------------------------------|-------------------------------|
        a long            time    pas    -    sing,


G|------- ------- ------- -------|------- ------- ------- -------|
D|------------6-------9---6------|--------------------6----------|
A|7------------------------------|------------7-----------7------|
E|-------------------------------|9------------------------------|
          Where have all      the graveyards  gone


G|------- ----6-- ----9-- 6------|------- ------- ------- -------|
D|7------------------------------|9-------7-------6--------------|
A|-------------------------------|------------------------9------|
E|-------------------------------|-------------------------------|
        a long    time        a - go?


G|------- ------- ------- -------|------- ------- ------- -------|
D|------------6-------9---6------|--------------------6----------|
A|7------------------------------|------------7-----------7------|
E|-------------------------------|9------------------------------|
          Where have all      the graveyards  gone?


G|------- ------- ------- -------|------- ------- ------- -------|
D|7------------------------------|9------------------------------|
A|-------------------------------|-------------------------------|
E|-------------------------------|-------------------------------|
  Gone    to      flowers,        eve  -  ry  one.


G|------- ------- ----6-- -------|------- ------- ------- -------|
D|------------7-----------7------|------------6-------9---6------|
A|9------------------------------|7------------------------------|
E|-------------------------------|-------------------------------|
          When    will    they    e - ver     learn,


G|------- ----6-- ----9-- 6------|------- ------- ------- -------|
D|7------------------------------|9-------7-------6--------------|
A|-------------------------------|------------------------9------|
E|-------------------------------|-------------------------------|
          when    will    they    e           -           ver

Outro:
G|------- ------- ------- -------|------- ------- ------- -------|
D|------------6-------9---6------|--------------------6----------|
A|7------------------------------|------------7-----------7------|
E|-------------------------------|9------------------------------|
  learn?


G|------- ----6-- ----9-- 6------|------- ------- ------- -------|
D|7------------------------------|9-------7-------6--------------|
A|-------------------------------|------------------------9------|
E|-------------------------------|-------------------------------|



G|------- ------- ------- -------|------- ------- ------- -------|
D|-------------------------------|-------------------------------|
A|7------------------------------|-------------------------------|
E|-------------------------------|-------------------------------|

Please e-mail me for any corrections, or write a comment.
Добавлено: 18.07.2015
Другие материалы по этой песне:
  • Аккорды и текст

Страница создана 18.07.2015
http://primanota.ru/searchers/where-have-all-flowers-gone-chords.htm
Привет, Гость.
Предлагаем пройти революционный курс по гитаре.
Подарок от PrimaNota.Ru, забирай!