PrimaNota.ru - самый крупный в мире бесплатный архив песенных текстов, аккордов, табулатур и нот


Searchers - Saints And Searchers - бас-таба, видео

Регистрация Запомнить меня
Войти через:  Facebook Google Twitter Vk Yandex Mail.ru

Searchers - Saints And Searchers - бас-таба, видео

Печатать
Просмотров: 68
Saints And Searchers
The Searchers
Traditional (the band's version of "When The Saints Go Marching In");
released as the B-side to "Sugar And Spice" and on the album "Sugar
And Spice".

Intro:
G|------- ------- ------- -------|------- ------- ------- -------|
D|-------------------------------|-------------------------------|
A|7------------------------------|7------------------------------|
E|----------------7--------------|----------------7--------------|



G|------- ------- ------- -------|------- ------- ------- -------|
D|-------------------------------|-------------------------------|
A|7------------------------------|7------------------------------|
E|----------------7--------------|----------------7--------------|



G|------- ------- ------- -------|------- ------- ------- -------|
D|-------------------------------|-------------------------------|
A|7------------------------------|7------------------------------|
E|----------------7--------------|----------------7--------------|
                                      Well,           when the saints

Verse:
G|------- ------- ------- -------|------- ------- ------- -------|
D|-------------------------------|-------------------------------|
A|7------------------------------|7------------------------------|
E|----------------7--------------|----------------7--------------|
                                      go          mar  -  chin' in,


G|------- ------- ------- -------|------- ------- ------- -------|
D|-------------------------------|-------------------------------|
A|7------------------------------|7------------------------------|
E|----------------7--------------|----------------7--------------|
                                      Yeah,           when the saints


G|------- ------- ------- -------|------- ------- ------- -------|
D|-------------------------------|-------------------------------|
A|7------------------------------|7------------------------------|
E|----------------7--------------|----------------7--------------|
                                      go          mar  -  chin' in,


G|------- ------- ------- -------|------- ------- ------- -------|
D|9------------------------------|9-------7-------6--------------|
A|----------------9--------------|------------------------9------|
E|-------------------------------|-------------------------------|
                                      I tell you something, gonna


G|------- ------- ------- -------|------- ------- ------- -------|
D|-------------------------------|----------------4-------5------|
A|7------------------------------|7-------7----------------------|
E|----------------7--------------|-------------------------------|
  be,                        hey, I'm gonna be in that num -  ber,


G|------- ------- ------- -------|------- ------- ------- -------|
D|7------------------------------|7------------------------------|
A|----------------7--------------|----------------7--------------|
E|-------------------------------|-------------------------------|
                                      Yeah,           when the saints


G|------- ------- ------- -------|------- ------- ------- -------|
D|-------------------------------|9-------7-------6--------------|
A|7------------------------------|------------------------9------|
E|----------------7--------------|-------------------------------|
                      go                      mar   -     chin' in.


G|------- ------- ------- -------|------- ------- ------- -------|
D|-------------------------------|-------------------------------|
A|7------------------------------|7------------------------------|
E|----------------7--------------|----------------7--------------|
                                      And         when the    band

Verse:
G|------- ------- ------- -------|------- ------- ------- -------|
D|-------------------------------|-------------------------------|
A|7------------------------------|7------------------------------|
E|----------------7-----------7--|----------------7-----------7--|
                                      go          swin -  gin' in,


G|------- ------- ------- -------|------- ------- ------- -------|
D|-------------------------------|-------------------------------|
A|7------------------------------|7------------------------------|
E|----------------7-----------7--|------------7---7--------------|
                                      Yeah,           when the band


G|------- ------- ------- -------|------- ------- ------- -------|
D|-------------------------------|-------------------------------|
A|7------------------------------|7------------------------------|
E|----------------7--------------|----------------7--------------|
                                      go          swin -  gin' in,


G|------- ------- ------- -------|------- ------- ------- -------|
D|9------------------------------|9-------7-------6--------------|
A|----------------9--------------|------------------------9------|
E|-------------------------------|-------------------------------|
                                      I tell you something, gonna


G|------- ------- ------- -------|------- ------- ------- -------|
D|-------------------------------|----------------4-------5------|
A|7------------------------------|7-------7----------------------|
E|----------------7--------------|-------------------------------|
  be,                        hey, I'm gonna be in that num -  ber,


G|------- ------- ------- -------|------- ------- ------- -------|
D|7------------------------------|7------------------------------|
A|----------------7--------------|----------------7--------------|
E|-------------------------------|-------------------------------|
                                      Yeah,           when the band


G|------- ------- ------- -------|------- ------- ------- -------|
D|-------------------------------|9-------7-------6--------------|
A|7------------------------------|------------------------9------|
E|----------------7--------------|-------------------------------|
                      go                          swin -  gin' in.


G|------- ------- ------- -------|------- ------- ------- -------|
D|-------------------------------|-------------------------------|
A|7------------------------------|7------------------------------|
E|----------------7--------------|----------------7--------------|
                                      Well,           when the saints

Verse:
G|------- ------- ------- -------|------- ------- ------- -------|
D|-------------------------------|-------------------------------|
A|7------------------------------|7------------------------------|
E|----------------7--------------|----------------7--------------|
                                      go          mar  -  chin' in,


G|------- ------- ------- -------|------- ------- ------- -------|
D|-------------------------------|-------------------------------|
A|7------------------------------|7------------------------------|
E|----------------7--------------|----------------7--------------|
                                      Yeah,           when the saints


G|------- ------- ------- -------|------- ------- ------- -------|
D|-------------------------------|-------------------------------|
A|7------------------------------|7------------------------------|
E|----------------7--------------|----------------7--------------|
                                      go      mar    -    chin' in,


G|------- ------- ------- -------|------- ------- ------- -------|
D|9------------------------------|9-------7-------6--------------|
A|----------------9--------------|------------------------9------|
E|-------------------------------|-------------------------------|
                                      I tell you something, gonna


G|------- ------- ------- -------|------- ------- ------- -------|
D|-------------------------------|----------------4-------5------|
A|7------------------------------|7-------7----------------------|
E|----------------7--------------|-------------------------------|
  be,                        hey, I'm gonna be in that num -  ber,


G|------- ------- ------- -------|------- ------- ------- -------|
D|7------------------------------|7------------------------------|
A|----------------7--------------|----------------7--------------|
E|-------------------------------|-------------------------------|
                                      Yeah,           when the saints


G|------- ------- ------- -------|------- ------- ------- -------|
D|-------------------------------|9-------7-------6--------------|
A|7------------------------------|------------------------9------|
E|----------------7--------------|-------------------------------|
                      go      mar            -            chin' in.


G|------- ------- ------- -------|------- ------- ------- -------|
D|-------------------------------|-------------------------------|
A|7------------------------------|7-------7---7---7---7---7------|
E|----------------7--------------|-------------------------------|
                          All                                 right!

Verse (solo):
G|------- ------- ------- -------|------- ------- ------- -------|
D|-------------------------------|-------------------------------|
A|7------------------------------|7------------------------------|
E|----------------7--------------|----------------7--------------|



G|------- ------- ------- -------|------- ------- ------- -------|
D|-------------------------------|-------------------------------|
A|7------------------------------|7------------------------------|
E|----------------7--------------|----------------7--------------|



G|------- ------- ------- -------|------- ------- ------- -------|
D|-------------------------------|-------------------------------|
A|7------------------------------|7------------------------------|
E|----------------7--------------|----------------7--------------|



G|------- ------- ------- -------|------- ------- ------- -------|
D|9------------------------------|9-------7-------6--------------|
A|----------------9--------------|------------------------9------|
E|-------------------------------|-------------------------------|



G|------- ------- ------- -------|------- ------- ------- -------|
D|-------------------------------|-------------------------------|
A|7------------------------------|7------------------------------|
E|----------------7--------------|----------------7--------------|



G|------- ------- ------- -------|------- ------- ------- -------|
D|7------------------------------|7------------------------------|
A|----------------7--------------|----------------7--------------|
E|-------------------------------|-------------------------------|



G|------- ------- ------- -------|------- ------- ------- -------|
D|-------------------------------|9-------7-------6--------------|
A|7------------------------------|------------------------9------|
E|----------------7--------------|-------------------------------|



G|------- ------- ------- -------|------- ------- ------- -------|
D|-------------------------------|-------------------------------|
A|7------------------------------|7------------------------------|
E|----------------7--------------|----------------7--------------|
                              Well,                   when the Sun

Verse:
G|------- ------- ------- -------|------- ------- ------- -------|
D|-------------------------------|-------------------------------|
A|7------------------------------|7------------------------------|
E|----------------7--------------|----------------7--------------|
                                          be- gins        to  shine,


G|------- ------- ------- -------|------- ------- ------- -------|
D|-------------------------------|-------------------------------|
A|7------------------------------|7------------------------------|
E|----------------7--------------|----------------7--------------|
                                      Hey,            when the Sun


G|------- ------- ------- -------|------- ------- ------- -------|
D|-------------------------------|-------------------------------|
A|7------------------------------|7------------------------------|
E|----------------7--------------|----------------7--------------|
                                          be- gins        to  shine,


G|------- ------- ------- -------|------- ------- ------- -------|
D|9------------------------------|9-------7-------6--------------|
A|----------------9--------------|------------------------9------|
E|-------------------------------|-------------------------------|
                                      I tell you something, gonna


G|------- ------- ------- -------|------- ------- ------- -------|
D|-------------------------------|----------------4-------5------|
A|7------------------------------|7-------7----------------------|
E|----------------7--------------|-------------------------------|
  be,                        hey, I'm gonna be in that num -  ber,


G|------- ------- ------- -------|------- ------- ------- -------|
D|7------------------------------|7------------------------------|
A|----------------7--------------|----------------7--------------|
E|-------------------------------|-------------------------------|
                                      Ah,             when the Sun


G|------- ------- ------- -------|------- ------- ------- -------|
D|-------------------------------|9-------7-------6--------------|
A|7------------------------------|------------------------9------|
E|----------------7--------------|-------------------------------|
                      be  -   gins                        to  shine.


G|------- ------- ------- -------|------- ------- ------- -------|
D|-------------------------------|-------------------------------|
A|7------------------------------|----7---7---7---7---7---7------|
E|----------------7--------------|-------------------------------|
                                      Ah,                     yeah!

Verse (solo):
G|------- ------- ------- -------|------- ------- ------- -------|
D|-------------------------------|-------------------------------|
A|7------------------------------|7------------------------------|
E|----------------7--------------|----------------7--------------|



G|------- ------- ------- -------|------- ------- ------- -------|
D|-------------------------------|-------------------------------|
A|7------------------------------|7------------------------------|
E|----------------7--------------|----------------7--------------|



G|------- ------- ------- -------|------- ------- ------- -------|
D|-------------------------------|-------------------------------|
A|7------------------------------|7------------------------------|
E|----------------7--------------|----------------7--------------|



G|------- ------- ------- -------|------- ------- ------- -------|
D|9------------------------------|9-------7-------6--------------|
A|----------------9--------------|------------------------9------|
E|-------------------------------|-------------------------------|



G|------- ------- ------- -------|------- ------- ------- -------|
D|-------------------------------|----------------4-------5------|
A|7------------------------------|7-------7----------------------|
E|----------------7--------------|-------------------------------|



G|------- ------- ------- -------|------- ------- ------- -------|
D|7------------------------------|7------------------------------|
A|----------------7--------------|----------------7--------------|
E|-------------------------------|-------------------------------|



G|------- ------- ------- -------|------- ------- ------- -------|
D|-------------------------------|9-------7-------6--------------|
A|7------------------------------|------------------------9------|
E|----------------7--------------|-------------------------------|



G|------- ------- ------- -------|------- ------- ------- -------|
D|-------------------------------|-------------------------------|
A|7------------------------------|7------------------------------|
E|----------------7--------------|----------------7--------------|
                                          Mmm,        yeah, the Sun

Verse:
G|------- ------- ------- -------|------- ------- ------- -------|
D|-------------------------------|-------------------------------|
A|7------------------------------|7------------------------------|
E|----------------7-----------7--|----------------7-----------7--|
                                      ah,             gonna   shine,


G|------- ------- ------- -------|------- ------- ------- -------|
D|-------------------------------|-------------------------------|
A|7------------------------------|7------------------------------|
E|----------------7-----------7--|----------------7-----------7--|
                                          Hey,        when the Sun


G|------- ------- ------- -------|------- ------- ------- -------|
D|-------------------------------|-------------------------------|
A|7------------------------------|7------------------------------|
E|----------------7-----------7--|----------------7-----------7--|
                                      ah,             gonna   shine,


G|------- ------- ------- -------|------- ------- ------- -------|
D|9------------------------------|9-------7-------6--------------|
A|----------------9--------------|------------------------9------|
E|-------------------------------|-------------------------------|
                                      I tell you something, gonna


G|------- ------- ------- -------|------- ------- ------- -------|
D|-------------------------------|----------------4-------5------|
A|7------------------------------|7-------7----------------------|
E|----------------7--------------|-------------------------------|
  be,                        hey, I'm gonna be in that num -  ber,


G|------- ------- ------- -------|------- ------- ------- -------|
D|7------------------------------|7------------------------------|
A|----------------7--------------|----------------7--------------|
E|-------------------------------|-------------------------------|
                                          Hey,        when the Sun


G|------- ------- ------- -------|------- ------- ------- -------|
D|-------------------------------|9-------7-------6--------------|
A|7------------------------------|------------------------9------|
E|----------------7--------------|-------------------------------|
                          be- gins                        to  shine.


G|------- ------- ------- -------|------- ------- ------- -------|
D|-------------------------------|-------------------------------|
A|7------------------------------|7------------------------------|
E|----------------7--------------|----------------7--------------|
                                      Ah,             when the saints

Verse:
G|------- ------- ------- -------|------- ------- ------- -------|
D|-------------------------------|-------------------------------|
A|7------------------------------|7------------------------------|
E|----------------7--------------|----------------7--------------|
                                      go      mar    -    chin' in,


G|------- ------- ------- -------|------- ------- ------- -------|
D|-------------------------------|-------------------------------|
A|7------------------------------|7------------------------------|
E|----------------7--------------|----------------7--------------|
                                      Yeah,           when the saints


G|------- ------- ------- -------|------- ------- ------- -------|
D|-------------------------------|-------------------------------|
A|7------------------------------|7------------------------------|
E|----------------7--------------|----------------7--------------|
                                      go      mar    -    chin' in,


G|------- ------- ------- -------|------- ------- ------- -------|
D|9------------------------------|9-------7-------6--------------|
A|----------------9--------------|------------------------9------|
E|-------------------------------|-------------------------------|
                                      I tell you something, gonna


G|------- ------- ------- -------|------- ------- ------- -------|
D|-------------------------------|----------------4-------5------|
A|7------------------------------|7-------7----------------------|
E|----------------7--------------|-------------------------------|
  be,                        hey, I'm gonna be in that num -  ber,


G|------- ------- ------- -------|------- ------- ------- -------|
D|7------------------------------|7------------------------------|
A|----------------7--------------|----------------7--------------|
E|-------------------------------|-------------------------------|
                                      Ah,             when the saints


G|------- ------- ------- -------|------- ------- ------- -------|
D|-------------------------------|9-------7-------6--------------|
A|7------------------------------|------------------------9------|
E|----------------7--------------|-------------------------------|
                      go      mar           -         chin'   in.


G|------- ------- ------- -------|------- ------- ------- -------|
D|-------------------------------|-------------------------------|
A|7------------------------------|7------------------------------|
E|----------------7--------------|-------------------------------|

Please e-mail me for any corrections, or write a comment.
Добавлено: 10.10.2015
Другие материалы по этой песне:
  • Аккорды и текст

Страница создана 10.10.2015
http://primanota.ru/searchers/saints-and-searchers-chords.htm
Привет, Гость.
Предлагаем пройти революционный курс по гитаре.
Подарок от PrimaNota.Ru, забирай!