PrimaNota.ru - самый крупный в мире бесплатный архив песенных текстов, аккордов, табулатур и нот


Скотт Джоплин - Eugenia - аккорды и текст, таба, видео

Регистрация Запомнить меня
Войти через:  Facebook Google Twitter Vk Yandex Mail.ru

Скотт Джоплин - Eugenia - аккорды и текст, таба, видео

Печатать
Просмотров: 425
Уроки эстрадного вокала в Санкт-Петербурге
Авторы музыки: Scott Joplin

Eugenia
Скотт Джоплин
		   Here's the first section of my arrangement of Joplin's Eugenia:

EUGENIA
Scott Joplin, arr. R. Darsie

Guitar: 6th to D




E---------------------|-----------------|------------------|-
B---------------------|-----------------|------------------|-
G------0-2-0----------|-----------------|------------------|-
D----0----------------|---0-2-0---------|------------------|-
A---------------2-3---|-0---------------|---------0-2-3-0--|-
D-------------------6-|-----------4-5-2-|-0-2-4-5----------|-



E---------------------||-----------------|------------------|
B---------------------||.-------0--------|-------0---3-0----|
G---------------------||.-0-2-3----------|---0-2---------0--|
D----0----------0-2-4-||.-----0-----0-1-2|-----0-------3----|
A---------0-2-3---3-0-||--------------2--|------------------|
D---------------------||--5-------0------|-5-------0--------|



E----3-0-----------|-------0--------|------------------|
B--------1---------|-----0-----1----|-------0----------|
G----------0-------|---0---------2--|-0-2-3------------|
D------2-----2---1-|-0---0---------4|-----0-----0-1-2--|
A--3-----------3---|-2-----------3--|-------------2----|
D----------2-------|---------0------|-5-------0--------|



E------------------|-----5-2---------|------------------|
B--------0---3---0-|-----------0-----|-3----------------|
G----0-2-------6---|---2-----0-----0-|------------------|
D------0-------0---|-----2---7-----7-|-4---------0-2-4--|
A------------------|-0-----------4---|-----0-2-3---3-0--|
D--5-------6-------|---------7-------|-0----------------|



E-----------------|-----------------|---3-0-2-3-5---6--|
B--------0--------|-------0-----0-3-|------------------|
G--0-2-3----------|---0-2-----0-----|-----0-------0----|
D------0-----0-1-2|-----0-------0---|------------------|
A--------------2--|-----------------|-3-------3--------|
D--5-------0------|-5-------0-------|------------------|



E--7-----5---------|-3-------------3-|---0-2-3---0------|
B------7-7-----5-7-|-0-0-1-3---0-3-1-|-------------2----|
G----8---5---7-----|---0-2-4---------|-----0---------3--|
D------7-------0---|-----0-------0---|-------------4----|
A----------0-------|-----------------|-3-------4--------|
D--9---------------|-5-------0-------|------------------|



E------------------|-----------------||-----------------|
B--0---3-0---------|----------------.||-----------------|
G----0-------------|-0--------------.||-----------------|
D--0-------0-2---0-|-0--------0-2-4-.||-----------------|
A------2---3-------|----0-2-3---3-0--||-----------------|
D----------0---4---|-5---------------||-----------------|


Enjoy,

Richard     
Добавлено: 03.08.2013
Другие материалы по этой песне:
  • Аккорды и текст

Страница создана 15.03.2012
http://primanota.ru/scott-joplin/eugenia-chords.htm
Привет, Гость.
Предлагаем пройти революционный курс по гитаре.
Подарок от PrimaNota.Ru, забирай!