PrimaNota.ru - самый крупный в мире бесплатный архив песенных текстов, аккордов, табулатур и нот


Скотт Джоплин - Solace - таба, видео

Регистрация Запомнить меня
Войти через:  Facebook Google Twitter Vk Yandex Mail.ru

Скотт Джоплин - Solace - таба, видео

Печатать
Просмотров: 188
Авторы музыки: Scott Joplin

Title: Solace  (Transcribed by jim@KathGuitars.com)
Artist: Scott Joplin, Arrange. Mike Nelson

Go to www.kathguitars.com for full pdf score (free)



E|-----------------|---------5-------|-5---------------|---------5----|-5---------------|
B|-2---3---4---5---|-----2-----------|-----0---2---3---|-----0--------|-3---0---2---3---|
G|-2---4---5---6---|-----------------|-------------4---|--------------|-2-----------4---|
D|-2---------------|---------4---2---|-0---------------|--------------|-2---------------|
A|-0---------------|-----------------|-----------------|--------------|-0---------------|
E|-----------------|-----------------|-----------------|--------------|-----------------|


E|-----3---4----|-4---------------|-------|-0-----|-----------------|---------0---2---|
B|---------3----|-2-----------2---|-------|-3-----|-2---3---4---5---|-----2-----------|
G|---------1----|-2-----------2---|-------|-1-----|-2---4---5---6---|-----------------|
D|--------------|-2-----------2---|-------|-------|-2---------------|-----------------|
A|--------------|-0---3---4-------|-------|-2-----|-0---------------|---------0-------|
E|---------0----|-----------------|-------|-0-----|-----------------|-----------------|


E|-4---0-----------|-----3---4----|-4---------------|-----3---4----|-4---------|-0-----|
B|---------4---2---|--------------|-5---4-----------|--------------|-5---------|-3-----|
G|-----------------|--------------|-6-------6-------|-5------------|-6---------|-1-----|
D|-----------------|--------------|-6---------------|--------------|-6----6----|-2-----|
A|-4-----------0---|---------4----|-4---------------|---------4----|-4---------|-2-----|
E|-----------------|--------------|-4---------------|--------------|-----------|-------|


E|-------|-----------------|---------5-------|-5---------------|---------5----|-5---------------|
B|-------|-2---3---4---5---|-----2-----------|-----0---2---3---|-----0--------|-3---0---2---3---|
G|-------|-2---4---5---6---|-----------------|-------------4---|--------------|-2-----------4---|
D|-------|-2---------------|---------4---2---|-0---------------|--------------|-2---------------|
A|-------|-0---------------|-----------------|-----------------|--------------|-0---------------|
E|-------|-----------------|-----------------|-----------------|--------------|-----------------|


E|-----3---4----|-4---------------|--------------|-2-----------2---|-----1---2-------|
B|---------3----|-2-----------2---|--------------|-3-----------1---|---------1-------|
G|---------1----|-2-----------2---|--------------|-2-----------2---|---------2-------|
D|--------------|-2-----------2---|--------------|-----0---4---1---|---------1-------|
A|--------------|-0---3---4-------|--------------|-----------------|-----------------|
E|---------0----|-----------------|------5---3---|-----------------|-----------------|


E|-5---5-----------|---------5-------|-2---0-----|-----------|-------|-------|-------|
B|-5---5-------4---|-----------------|-2---------|-3-----2---|-------|-------|-7-----|
G|-6---6-------5---|-----------------|-2---------|-1---------|-2-----|-------|-------|
D|-7---7-------4---|-----------------|-2---------|-2---------|-2-----|-------|-------|
A|-----------------|-----------------|-0---------|-2---------|-0-----|-------|-------|
E|-----------------|-----------------|-----------|-----------|-------|-------|-------|


E|-------|-10--10--10--10--|-----10------10--|-10--10--10--10--|-----10------10--|
B|-10----|-10--9---8---9---|-----8-------9---|-10--9---8---9---|-----8-------9---|
G|-------|-7---7---7---7---|-----7-------7---|-7---7---7---7---|-----7-------7---|
D|-------|-----------------|-----------------|-----------------|-----------------|
A|-------|-0---------------|-7---------------|-0---------------|-7---------------|
E|-------|-----------------|---------0-------|-----------------|---------0-------|


E|-----------------|-----------------|-----------------|-----------------|-----------------|
B|-9---7---6---7---|-7---------------|-------------5---|-7---5---5---3---|-2---3-------2---|
G|-9---6---5---6---|-6---------------|-----5---6-------|-6---6---6---4---|-3---4-------3---|
D|-----------------|-----------------|-----------------|-7---------------|-----------------|
A|-----------------|---------7-------|-0---------------|-----------------|---------0-------|
E|-----------------|-----------------|-----------------|-----------------|-----------------|


E|-----------------|-----------------|-----------------|-----------------|-----------|
B|-----3---5---3---|-2---3-------2---|-----3---3---2---|-3---5-----------|-----------|
G|-----4---6---4---|-3---4-------3---|-----4---4---3---|-4---6-----------|-----------|
D|-----------------|-----------------|-----------------|-----------------|-----------|
A|-----------------|---------0-------|-----------------|-----------------|-7---------|
E|-0---------------|-----------------|-0---------------|-----------------|------0----|


E|--------------|-----------------|-----------|-----------|-----10--10--10--|-10------10------|
B|--------------|-----------------|-----7-----|-7---10----|-----10--9---8---|-9-------8-------|
G|----------5---|-6-----------8---|-----------|-----------|-----7---7---7---|-7-------7-------|
D|--------------|-----------------|-----------|-----------|-----------------|-----------------|
A|-----0--------|-----------------|-----------|-----------|-----0-----------|-----7-----------|
E|--------------|-----------------|-----------|-----------|-----------------|-------------0---|


E|-10--10--10--10--|-10------10------|-10--------------|-----------|-----------------|
B|-9---10--9---8---|-9-------8-------|-9---9---7---6---|-7---------|-------------5---|
G|-7---7---7---7---|-7-------7-------|-7---9---6---5---|-6---------|-----5---6-------|
D|-----------------|-----------------|-----------------|-----------|-----------------|
A|-----0-----------|-----7-----------|-----------------|-----------|-0---------------|
E|-----------------|-------------0---|-----------------|-----------|-----------------|


E|-----9---5-------|-----5-------5---|-5---5--------|-----5-----------|-----5----7---|
B|-------------8---|-7-------7-------|----------7---|-7-------7---5---|--------------|
G|-----------------|-----------------|--------------|-------------6---|--------------|
D|-----------------|-0---------------|--------------|-------------7---|--------------|
A|---------0-------|-------------6---|-6---6--------|-0-----------0---|--------------|
E|-----------------|-----------------|--------------|-----------------|--------------|


E|-9---8---9---12--|-----9----7---|-5---------|-17-------|
B|-9---9---9---9---|-----9----9---|-5---------|-14-------|
G|-------------9---|-----7----7---|-6---------|-14-------|
D|-7---7---7---9---|-----7----7---|-7---------|----------|
A|-------------9---|--------------|-0---------|-0--------|
E|-----------------|--------------|-----------|----------|


Добавлено: 20.06.2013
Другие материалы по этой песне:

Страница создана 23.03.2012
http://primanota.ru/scott-joplin/solace-chords.htm
Привет, Гость.
Предлагаем пройти революционный курс по гитаре.
Подарок от PrimaNota.Ru, забирай!