PrimaNota.ru - самый крупный в мире бесплатный архив песенных текстов, аккордов, табулатур и нот


Scorpions - Taxman Woman - текст песни, таба, бас-таба, видео

Регистрация Запомнить меня
Войти через:  Facebook Google Twitter Vk Yandex Mail.ru

Scorpions - Taxman Woman - текст песни, таба, бас-таба, видео

Печатать
Просмотров: 209
Author: wowstormman67
E-mail: mtv6310@gmail.com

Artist:  Scorpions
Song:    Taxman Woman
Album:   Face The Heat

Sat down and tried to play this by ear and it worked out pretty well. I'm not sure if
it's the right way to play it, but it sounds pretty close to the original in my opinion.
Most of the mini-solo-thing is accurate except for that last part of it. Can't really 
hear how to play it.

No solo tabbed as I am not that good a guitarist (1½ years of playing), but hopefully
some of you can give me some feedback on this. Also this is my first tab.


Tuning:  E Standard (EADGBe)

(h): hammer-on  (p): pull-off  (\): slide down  (/): slide up (~): let ring
(v): vibrato  (*): Mute (By lifting fingers slightly) (pm): palm mute

Each section resembles 16 16th notes (Not good at all this in English, but I hope you
know what I mean, and I hope that you can decode it :-))

Intro 1
e|----------------------------------------|
B|----------------------------------------|
G|----------------------------------------|
D|----------------------------------------|
A|--0-12-0-10-0-9-10-1010p9\7-7-9-10-9-5--|
E|----------------------------------------|


e|----------------------------------------|
B|----------------------------------------|
G|----------------------------------------|
D|----------------------------------12-7--|
A|--0-12-0-10-0-9-10-1010p9\7-7-9-10------|
E|----------------------------------------|

Intro 2
e|----------------------------------------|
B|----------------------------------------|
G|----------------------------------------|
D|----------------------------------------|
A|--0-12-0-10-0-9-10vvvvvvvvvvvvvvvvvvvv--|
E|----------------------------------------|


e|----------------------------------------|
B|----------------------------------------|
G|----------------------------------------|
D|--------------12-7vvvvvvvvvvvvvvvvvvvv--|
A|--0-12-0-10-0---------------------------|
E|----------------------------------------|



Verse
e|----------------------------------------|
B|----------------------------------------|
G|----------------------------------------|
D|~~~~~~~~~~~~~~~~~~~~~~~~~~~~~~~~~~~~~~--| <-- Let the 7th note ring
A|----------------------------------------|
E|----------------------------------------|

e|----------------------------------------| This is chicken picked
B|--1010--8-8---7-7--8--------------------|
G|--9-9---7-7---6-6--7--------------------|
D|--7-7---5-5---4-4--5--------------------|
A|----------------------------------------|
E|----------------------------------------|
  ---*-*---*-*---*-*----------------------| <-- Mute by loosing the tension on strings

Bridge (??)
e|----------------------------------------|
B|----------------------------------------|
G|----------------------------------------|
D|--5\3~~~~~~~~~~~~~~5\3~~~~~~~~~~~~~~~~--|
A|--5\3~~~~~~~~~~~~~~5\3~~~~~~~~~~~~~~~~--|
E|--3\1~~~~~~~~~~~~~~3\1~~~~~~~~~~~~~~~~--|

e|----------------------------------------|
B|----------------------------------------|
G|----------------------------------------|
D|--5/7~~~~~~~~\pm------------------------|
A|--5/7~~~~~~~~\pm------------------------|
E|--3/5~~~~~~~~\pm------------------------|


Chorus
e|------------------------------|
B|------------------------------|
G|------------------------------|
D|--7-79-77-79-79-911-99-911-9--|
A|--5-55-55-55-57-77--77-77--7--|
E|------------------------------|
  
e|------------------------------|
B|------------------------------|
G|------------------------------|
D|------------------------------|
A|--8-810-88-810-86-68-66-68-6--|
E|--6-66--66-66--64-44-44-44-4--|

e|------------------------------|
B|------------------------------|
G|------------------------------|
D|--7-79-77-79-79-911-99-911-9--|
A|--5-55-55-55-57-77--77-77--7--|
E|------------------------------|
  
e|------------------------------|
B|------------------------------|
G|------------------------------|
D|------------------------------|
A|--8-810-88-810-8~~~~~~~~~~~~--|
E|--6-66--66-66--6~~~~~~~~~~~~--|

Mini-Solo-Riff
e|-----------------------------------------------|
B|-----------------------------------------------|
G|-----------------------------------------------|
D|-----------------------------------------------|
A|--3p0-0-0-0-0-3p0-0-0-0-0-3p0-0-0-0-0-3p0-3-5--|
E|-----------------------------------------------|






Song Order:

Intro 1   x2
Verse     x1
Intro 1   x1
Verse     x1
Intro 1   x1
Bridge    x2
Chorus    x1
Intro 1   x2
Chorus    x2
Bridge    x2
Chorus    x4
Intro 2   x2
Mini-solo x4
Bridge    x2
Chorus    x8
Добавлено: 01.08.2013
Другие материалы по этой песне:
  • Аккорды и текст

Страница создана 16.03.2012
http://primanota.ru/scorpions/taxman-woman-chords.htm
Привет, Гость.
Предлагаем пройти революционный курс по гитаре.
Подарок от PrimaNota.Ru, забирай!