PrimaNota.ru - самый крупный в мире бесплатный архив песенных текстов, аккордов, табулатур и нот


Scissor Sisters - Ooh - текст песни, бас-таба, видео

Регистрация Запомнить меня
Войти через:  Facebook Google Twitter Vk Yandex Mail.ru

Scissor Sisters - Ooh - текст песни, бас-таба, видео

Печатать
Просмотров: 158
Авторы: Derek Gruen, Scott Hoffman, Jason Sellards

This is a really funky bass line, i love it. It is primarily this throughout the entire 
but the chorus has a little extra that im not sure what it is, but u can probs get away 
just this for the whole song.

G|-------------------------------------|
D|-----------7---9--------10------7----|
A|-7/-------------------------------5--|
E|-----5-5-5---7---8----8-------5------|


G|---7---8-----------------------------|
D|----------------------2----5--------:|
A|-5---6---7-----7/-------------------:|
E|--------------------0----3-----------|

Listen to the song for timing. Cheers, got any probs just email me at damo_64@hotmail.com
Добавлено: 21.07.2012
Другие материалы по этой песне:
  • Аккорды и текст

Страница создана 11.04.2012
http://primanota.ru/scissor-sisters/ooh-chords.htm
Привет, Гость.
Предлагаем пройти революционный курс по гитаре.
Подарок от PrimaNota.Ru, забирай!