PrimaNota.ru - самый крупный в мире бесплатный архив песенных текстов, аккордов, табулатур и нот


Scar Symmetry - Ghost Prototype I - таба, видео

Регистрация Запомнить меня
Войти через:  Facebook Google Twitter Vk Yandex Mail.ru

Scar Symmetry - Ghost Prototype I - таба, видео

Печатать
Просмотров: 89
-------------------------------------------------------------------------------
        GHOST PROTOTYPE I: MEASUREMENT OF THOUGHT SOLO - Scar Symmetry
-------------------------------------------------------------------------------
Tabbed by: Jakecarr74
E-mail: jake.carr74@gmail.com

I have a video on YouTube of me covering this solo. It can be found at this link:
http://www.youtube.com/watch?v=7oRaaVR4Tb8

Tuning: EADGBe

e|---------------------------------------------------------------------------|
B|--------------------------------------------------------------------7------|
G|-6-7-6-5-4-5-6-5-4-5-6-7-6-5-4-5-6-5-4-5-6-7-6-5-4-5-6-5-4-5-6~-/10---10-9-|
D|---------------------------------------------------------------------------|
A|---------------------------------------------------------------------------|
E|---------------------------------------------------------------------------|

e|---------------------------------------------------------------------------|
B|-----------------7----------------------7----------------------------10----|
G|-7-9-10-9-7-9-10---10-9-7-9-10-9-7-9-10---10-9-7-9-10-9-7-9-10~--/13----13-|
D|---------------------------------------------------------------------------|
A|---------------------------------------------------------------------------|
E|---------------------------------------------------------------------------|

e|---------------------------------------------------------------------------|
B|-------------------------10----------------------------10------------------|
G|-11-10-11-13-11-10-11-13----13-11-10-11-13-11-10-11-13----13-11-10-11-13-11|
D|---------------------------------------------------------------------------|
A|---------------------------------------------------------------------------|
E|---------------------------------------------------------------------------|

e|---------------------10-13p10-16p13-------------------16-21p16-------------|
B|------------------12----------------15-------------18----------19----------|
G|-10-11-13~--10h13----------------------16-13/16-19----------------18-------|
D|---------------------------------------------------------------------16\15-|
A|---------------------------------------------------------------------------|
E|---------------------------------------------------------------------------|

e|---------------------------------------------------------------------------|
B|---------------------------------------------------------------------------|
G|-----------------8~8~-8\6/9-8\3-3+~~-3-1-3/4-3-----------------------------|
D|-----------------------------------------------/5~~-5-6-5~-2-1-------------|
A|-16------------------------------------------------------------4-2-1-------|
E|----16p14\13~\-------------------------------------------------------4-3~~-|

e|------------------------------------------------------16-18-18b19br18-16---|
B|-11b12-12~~~-11b12br11p9-9~~~/12-12/16-16/21-21~~~-16--------------------19|
G|---------------------------------------------------------------------------|
D|---------------------------------------------------------------------------|
A|---------------------------------------------------------------------------|
E|---------------------------------------------------------------------------|

e|-17/18---------------------------------------------------------------------|
B|-------19--------------------------------12h14h15-14b15br14-12--------10---|
G|----------/20~-18\16-18-17b18 16~~-13h14-----------------------11~~-9----9-|
D|---------------------------------------------------------------------------|
A|---------------------------------------------------------------------------|
E|---------------------------------------------------------------------------|

e|------------------------------------------------------------------9-12/14--|
B|---------------------------------------------------------------10----------|
G|-7-7p6p4-----4----------------------------------------------11-------------|
D|---------4h7---7/9-7-4-------4-----------------------7-9-12----------------|
A|-----------------------7-5-7---5h7p5---------------9-----------------------|
E|-------------------------------------7-5-7~~~-7-10-------------------------|

e|-10--------------------------14h17t22b24br22-17/19~-19-17-19-15-19-14-19---|
B|----12--------------------15---------------------------------------------17|
G|-------11--------------16--------------------------------------------------|
D|----------12--------16-----------------------------------------------------|
A|-------------14-/17--------------------------------------------------------|
E|---------------------------------------------------------------------------|

e|-19----19----------14-15-17-15-14------------------------------------------|
B|----15----14-15-17----------------17-15-14-------------------------6-------|
G|-------------------------------------------16-14-12------------------9-7-6-|
D|----------------------------------------------------16-14-12-11~~----------|
A|---------------------------------------------------------------------------|
E|---------------------------------------------------------------------------|

e|---------------------------------------------------------------------------|
B|-----6-----------6---6-----------6-----------6---6-----------6-7---6-7-9-10|
G|-7-9---9-7-6-7-9---9---9-7-6-7-9---9-7-6-7-9---9---9-7-6-7-9-----9---------|
D|---------------------------------------------------------------------------|
A|---------------------------------------------------------------------------|
E|---------------------------------------------------------------------------|

e|-------------------9-------9-10----9-10-14-13-14-13-10---------------------|
B|-7-9-10-12-9-10-12---10-12------12---------------------14-12-10------------|
G|----------------------------------------------------------------13-11-10---|
D|-------------------------------------------------------------------------12|
A|---------------------------------------------------------------------------|
E|---------------------------------------------------------------------------|

e|-------------------------14\13-13~\--------7-10p7-13p10--------------------|
B|-------------------------x---------------9--------------12-------------15--|
G|-------------------------x----------7h10-------------------13-10/13-16-----|
D|-11-12-11-9--------------x-------------------------------------------------|
A|------------12-11-9-8~~~-x-------------------------------------------------|
E|-------------------------x-------------------------------------------------|

e|-13-16/19-16----------------16h19t22~~p17p16p13----------------------------|
B|-------------18----------18---------------------14-------14-15p14p12-------|
G|----------------19-16h19---------------------------14-11-------------14/16~|
D|---------------------------------------------------------------------------|
A|---------------------------------------------------------------------------|
E|---------------------------------------------------------------------------|

e|---------------------14-19-19b21-17~-/14~----------------------------------|
B|------------12-14-15----------------------14h15p14-------------------------|
G|---------11----------------------------------------14----------------------|
D|-9-11-12----------------------------------------------14\11h14p11----------|
A|------------------------------------------------------------------12-9~/16-|
E|---------------------------------------------------------------------------|

e|---------------------------------------------------------------------------|
B|---------------------------------------------------------------------------|
G|---------------------------------------11h14h16t18p16p14p11----------------|
D|-------------------------------------------------------------------------12|
A|-h17p16p14~-12h14h16t17p16p14p12h14h16----------------------t17p14p12h14---|
E|---------------------------------------------------------------------------|

e|-------------------------------------------------14h17h19t22b24br22p19~~~\-|
B|----------------------10h12h15t17p15p12p10h12h15---------------------------|
G|---------------------------------------------------------------------------|
D|-12h14h16p14p12h14h16------------------------------------------------------|
A|---------------------------------------------------------------------------|
E|---------------------------------------------------------------------------|

************************************

| /   slide up
| \   slide down
| h   hammer-on
| p   pull-off
| ~   vibrato
| +   harmonic
| x   Mute note
| b   Bend
| t   Tap
| pb  Pre-bend
| br  Bend release
| pbr Pre-bend release
| brb Bend release bend

************************************
Добавлено: 27.11.2013
Другие материалы по этой песне:

Страница создана 31.03.2012
http://primanota.ru/scar-symmetry/ghost-prototype-i-chords.htm
Привет, Гость.
Предлагаем пройти революционный курс по гитаре.
Подарок от PrimaNota.Ru, забирай!