PrimaNota.ru - самый крупный в мире бесплатный архив песенных текстов, аккордов, табулатур и нот


Scandal - Daydream - таба, бас-таба, видео

Регистрация Запомнить меня
Войти через:  Facebook Google Twitter Vk Yandex Mail.ru

Scandal - Daydream - таба, бас-таба, видео

Печатать
Просмотров: 132
SCANDAL - Daydream Guitar Tab

by Scalar719

Tuning: Drop D


[Intro]

Guitar 1 (lead)
e|---------------------------------------------------------------------------|
B|----------------------------------3----------------------------------------|
G|-----2-5-2-5-4---4-3---3------2-5---5-4---4-3------------------------------|
D|-0-3-----------5-----3----0-3-----------5----------------------------------|
A|---------------------------------------------------------------------------|
D|---------------------------------------------------------------------------|

e|---------------------------------------------------------------------------|
B|----------------------------------3----------------------------------------|
G|-----2-5-2-5-4---4-3---3------2-5---5-4---4-3------------------------------|
D|-0-3-----------5-----3----0-3-----------5----------------------------------|
A|---------------------------------------------------------------------------|
D|---------------------------------------------------------------------------|


Guitar 2 (Rhythm)
e|---------------------------------------------------------------------------|
B|---------------------------------------------------------------------------|
G|-7------10--------------------7------10------------------------------------|
D|-7------10------5------8------7------10------5------8----------------------|
A|-5------8-------5------8------5------8-------5------8----------------------|
D|----------------5------8---------------------5------8----------------------|

e|---------------------------------------------------------------------------|
B|---------------------------------------------------------------------------|
G|-7------10--------------------7------10------------------------------------|
D|-7------10------5------8------7------10------5------8----------------------|
A|-5------8-------5------8------5------8-------5------8----------------------|
D|----------------5------8---------------------5------8----------------------|


[Verse 1]

Guitar 1 (lead) & Guitar 2 (Rhythm)
e|---------------------------------------------------------------------------|
B|---------------------------------------------------------------------------|
G|-7-7----10-10--------------------7-7----10-10------------------------------|
D|-7-7----10-10----8-8----10-10----7-7----10-10----8-8----10-10--------------|
A|-5-5----8--8-----8-8----10-10----5-5----8--8-----8-8----10-10--------------|
D|-----------------8-8----10-10--------------------8-8----10-10--------------|

e|---------------------------------------------------------------------------|
B|---------------------------------------------------------------------------|
G|-7-7----10-10--------------------7-7----10-10------------------------------|
D|-7-7----10-10----8-8----10-10----7-7----10-10----8-8-8---10-10-10----------|
A|-5-5----8--8-----8-8----10-10----5-5----8--8-----8-8-8---10-10-10----------|
D|-----------------8-8----10-10--------------------8-8-8---10-10-10----------|


[Chorus]

Guitar 1 (lead) 
e|---------------------------------------------------------------------------|
B|---------------------------------------------------------------------------|
G|------------------5-5-5-5-5-5-5-5-------------------3-3-3-3-3-3-3-3--------|
D|-5-5-5-5-5-5-5-5--5-5-5-5-5-5-5-5--3-3-3-3-3-3-3-3--3-3-3-3-3-3-3-3--------|
A|-5-5-5-5-5-5-5-5--3-3-3-3-3-3-3-3--3-3-3-3-3-3-3-3--1-1-1-1-1-1-1-1--------|
D|-5-5-5-5-5-5-5-5-------------------3-3-3-3-3-3-3-3-------------------------|

e|---------------------------------------------------------------------------|
B|---------------------------------------------------------------------------|
G|-----------------------------------7-7-7-7-7-7-7-7--5-5-5-5-5-5-5-5--------|
D|-2-2-2-2-2-2-2-2--7-7-7-7-7-7-7-7--7-7-7-7-7-7-7-7--5-5-5-5-5-5-5-5--------|
A|-2-2-2-2-2-2-2-2--7-7-7-7-7-7-7-7--5-5-5-5-5-5-5-5--3-3-3-3-3-3-3-3--------|
D|-2-2-2-2-2-2-2-2--7-7-7-7-7-7-7-7------------------------------------------|

e|---------------------------------------------------------------------------|
B|---------------------------------------------------------------------------|
G|------------------5-5-5-5-5-5-5-5-------------------3-3-3-3-3-3-3-3--------|
D|-5-5-5-5-5-5-5-5--5-5-5-5-5-5-5-5--3-3-3-3-3-3-3-3--3-3-3-3-3-3-3-3--------|
A|-5-5-5-5-5-5-5-5--3-3-3-3-3-3-3-3--3-3-3-3-3-3-3-3--1-1-1-1-1-1-1-1--------|
D|-5-5-5-5-5-5-5-5-------------------3-3-3-3-3-3-3-3-------------------------|

e|---------------------------------------------------------------------------|
B|---------------------------------------------------------------------------|
G|-9-9-9-9-9-9-9-9-----------------------------------------------------------|
D|-9-9-9-9-9-9-9-9--7--------------------------------------------------------|
A|-7-7-7-7-7-7-7-7--7--------------------------------------------------------|
D|------------------7--------------------------------------------------------|


Guitar 2 (Rhythm)
e|---------------------------------------------------------------------------|
B|---------------------------------------------------------------------------|
G|------------------5-5-5-5-5-5-5-5-------------------3-3-3-3-3-3-3-3--------|
D|-5-5-5-5-5-5-5-5--5-5-5-5-5-5-5-5--3-3-3-3-3-3-3-3--3-3-3-3-3-3-3-3--------|
A|-5-5-5-5-5-5-5-5--3-3-3-3-3-3-3-3--3-3-3-3-3-3-3-3--1-1-1-1-1-1-1-1--------|
D|-5-5-5-5-5-5-5-5-------------------3-3-3-3-3-3-3-3-------------------------|

e|---------------------------------------------------------------------------|
B|---------------------------------------------------------------------------|
G|-----------------------------------7-7-7-7-7-7-7-7--5-5-5-5-5-5-5-5--------|
D|-2-2-2-2-2-2-2-2--7-7-7-7-7-7-7-7--7-7-7-7-7-7-7-7--5-5-5-5-5-5-5-5--------|
A|-2-2-2-2-2-2-2-2--7-7-7-7-7-7-7-7--5-5-5-5-5-5-5-5--3-3-3-3-3-3-3-3--------|
D|-2-2-2-2-2-2-2-2--7-7-7-7-7-7-7-7------------------------------------------|

e|---------------------------------------------------------------------------|
B|---------------------------------------------------------------------------|
G|------------------5-5-5-5-5-5-5-5-------------------3-3-3-3-3-3-3-3--------|
D|-5-5-5-5-5-5-5-5--5-5-5-5-5-5-5-5--3-3-3-3-3-3-3-3--3-3-3-3-3-3-3-3--------|
A|-5-5-5-5-5-5-5-5--3-3-3-3-3-3-3-3--3-3-3-3-3-3-3-3--1-1-1-1-1-1-1-1--------|
D|-5-5-5-5-5-5-5-5-------------------3-3-3-3-3-3-3-3-------------------------|

e|---------------------------------------------------------------------------|
B|---------------------------------------------------------------------------|
G|---------------------------------------------------------------------------|
D|-2----------------7--------------------------------------------------------|
A|-2----------------7--------------------------------------------------------|
D|-2----------------7--------------------------------------------------------|



[Post-Chorus 1]

Guitar 1 (lead) & Guitar 2 (Rhythm)
e|-----------------------------------------------------------------------------------|
B|-----------------------------------------------------------------------------------|
G|-7-7-7-7-7-7-7-7--10-10-10-10-10-10-10-10------------------------------------------|
D|-7-7-7-7-7-7-7-7--10-10-10-10-10-10-10-10--8-8-8-8-8-8-8-8--10-10-10-10-10-10-10-10|
A|-5-5-5-5-5-5-5-5--8--8--8--8--8--8--8--8---8-8-8-8-8-8-8-8--10-10-10-10-10-10-10-10|
D|-------------------------------------------8-8-8-8-8-8-8-8--10-10-10-10-10-10-10-10|

e|-----------------------------------------------------------------------------------|
B|-----------------------------------------------------------------------------------|
G|-7-7-7-7-7-7-7-7--10-10-10-10-10-10-10-10------------------------------------------|
D|-7-7-7-7-7-7-7-7--10-10-10-10-10-10-10-10--8-8-8-8-8-8-8-8--10-10-10-10-10-10-10-10|
A|-5-5-5-5-5-5-5-5--8--8--8--8--8--8--8--8---8-8-8-8-8-8-8-8--10-10-10-10-10-10-10-10|
D|-------------------------------------------8-8-8-8-8-8-8-8--10-10-10-10-10-10-10-10|




[Verse 2]

Guitar 1 (lead) & Guitar 2 (Rhythm)

(empty until last 2 bars)

e|---------------------------|
B|---------------------------|
G|---------------------------|
D|-8-8-8---10-10-10----------|
A|-8-8-8---10-10-10----------|
D|-8-8-8---10-10-10----------|



[Repeat Chorus]



[Post - Chorus 2]

Guitar 1 (lead) & Guitar 2 (Rhythm)
e|---------------------------------------------------------------------------|
B|---------------------------------------------------------------------------|
G|-7-7-7-7-7-7-7-7--10-10-10-10-10-10-10-10--12-12-12-12-12-12-12-12--14-----|
D|-7-7-7-7-7-7-7-7--10-10-10-10-10-10-10-10--12-12-12-12-12-12-12-12--14-----|
A|-5-5-5-5-5-5-5-5--8--8--8--8--8--8--8--8---10-10-10-10-10-10-10-10--12-----|
D|---------------------------------------------------------------------------|

e|---------------------------------------------------------------------------|
B|---------------------------------------------------------------------------|
G|-7-7-7-7-7-7-7-7--10-10-10-10-10-10-10-10--15-15-15-15-15-15-15-15--14-----|
D|-7-7-7-7-7-7-7-7--10-10-10-10-10-10-10-10--15-15-15-15-15-15-15-15--14-----|
A|-5-5-5-5-5-5-5-5--8--8--8--8--8--8--8--8---13-13-13-13-13-13-13-13--12-----|
D|---------------------------------------------------------------------------|


Guitar 1 (lead)
e|---------------------------------------------------------------------------|
B|----------------------------------3----------------------------------------|
G|-----2-5-2-5-4---4-3---3------2-5---5-4---4-3------------------------------|
D|-0-3-----------5-----3----0-3-----------5----------------------------------|
A|---------------------------------------------------------------------------|
D|---------------------------------------------------------------------------|

e|---------------------------------------------------------------------------|
B|----------------------------------3----------------------------------------|
G|-----2-5-2-5-4---4-3---3------2-5---5-3---5--------------------------------|
D|-0-3-----------5-----3----0-3----------------------------------------------|
A|---------------------------------------------------------------------------|
D|---------------------------------------------------------------------------|

Guitar 2 (Rhythm)
e|---------------------------------------------------------------------------|
B|---------------------------------------------------------------------------|
G|-7-7-7-7-7-7-7-7--10-10-10-10-10-10-10-10----------------------------------|
D|-7-7-7-7-7-7-7-7--10-10-10-10-10-10-10-10--5-5-5-5-5-5-5-5--8-8-8-8-8-8-8-8|
A|-5-5-5-5-5-5-5-5--8--8--8--8--8--8--8--8---5-5-5-5-5-5-5-5--8-8-8-8-8-8-8-8|
D|-------------------------------------------5-5-5-5-5-5-5-5--8-8-8-8-8-8-8-8|

e|---------------------------------------------------------------------------|
B|---------------------------------------------------------------------------|
G|-7-7-7-7-7-7-7-7--10-10-10-10-10-10-10-10----------------------------------|
D|-7-7-7-7-7-7-7-7--10-10-10-10-10-10-10-10--5-5-5-5-5-5-5-5--8-8-8-8-8-8-8-8|
A|-5-5-5-5-5-5-5-5--8--8--8--8--8--8--8--8---5-5-5-5-5-5-5-5--8-8-8-8-8-8-8-8|
D|-------------------------------------------5-5-5-5-5-5-5-5--8-8-8-8-8-8-8-8|

e|---------------------------------------------------------------------------|
B|---------------------------------------------------------------------------|
G|-7-7-7-7-7-7-7-7--10-10-10-10-10-10-10-10----------------------------------|
D|-7-7-7-7-7-7-7-7--10-10-10-10-10-10-10-10--5-5-5-5-5-5-5-5--8-8-8-8-8-8-8-8|
A|-5-5-5-5-5-5-5-5--8--8--8--8--8--8--8--8---5-5-5-5-5-5-5-5--8-8-8-8-8-8-8-8|
D|-------------------------------------------5-5-5-5-5-5-5-5--8-8-8-8-8-8-8-8|

e|---------------------------------------------------------------------------|
B|---------------------------------------------------------------------------|
G|-7-7-7-7-7-7-7-7--10-10-10-10-10-10-10-10----------------------------------|
D|-7-7-7-7-7-7-7-7--10-10-10-10-10-10-10-10--8----------------10-------------|
A|-5-5-5-5-5-5-5-5--8--8--8--8--8--8--8--8---8----------------10-------------|
D|-------------------------------------------8----------------10-------------|


[Final Chorus]

Guitar 1 (lead) & Guitar 2 (Rhythm)
e|---------------------------------------------------------------------------|
B|---------------------------------------------------------------------------|
G|------------------5-5-5-5-5-5-5-5-------------------3-3-3-3-3-3-3-3--------|
D|-5-5-5-5-5-5-5-5--5-5-5-5-5-5-5-5--3-3-3-3-3-3-3-3--3-3-3-3-3-3-3-3--------|
A|-5-5-5-5-5-5-5-5--3-3-3-3-3-3-3-3--3-3-3-3-3-3-3-3--1-1-1-1-1-1-1-1--------|
D|-5-5-5-5-5-5-5-5-------------------3-3-3-3-3-3-3-3-------------------------|

e|---------------------------------------------------------------------------|
B|---------------------------------------------------------------------------|
G|-----------------------------------7-7-7-7-7-7-7-7--5-5-5-5-5-5-5-5--------|
D|-2-2-2-2-2-2-2-2--7-7-7-7-7-7-7-7--7-7-7-7-7-7-7-7--5-5-5-5-5-5-5-5--------|
A|-2-2-2-2-2-2-2-2--7-7-7-7-7-7-7-7--5-5-5-5-5-5-5-5--3-3-3-3-3-3-3-3--------|
D|-2-2-2-2-2-2-2-2--7-7-7-7-7-7-7-7------------------------------------------|

e|---------------------------------------------------------------------------|
B|---------------------------------------------------------------------------|
G|------------------5-5-5-5-5-5-5-5-------------------3-3-3-3-3-3-3-3--------|
D|-5-5-5-5-5-5-5-5--5-5-5-5-5-5-5-5--3-3-3-3-3-3-3-3--3-3-3-3-3-3-3-3--------|
A|-5-5-5-5-5-5-5-5--3-3-3-3-3-3-3-3--3-3-3-3-3-3-3-3--1-1-1-1-1-1-1-1--------|
D|-5-5-5-5-5-5-5-5-------------------3-3-3-3-3-3-3-3-------------------------|

e|---------------------------------------------------------------------------|
B|---------------------------------------------------------------------------|
G|-----------------------------------7-7-7-7-7-7-7-7--11-11-11-11-11-11-11-11|
D|-2-2-2-2-2-2-2-2--7-7-7-7-7-7-7-7--7-7-7-7-7-7-7-7--11-11-11-11-11-11-11-11|
A|-2-2-2-2-2-2-2-2--7-7-7-7-7-7-7-7--5-5-5-5-5-5-5-5--9--9--9--9--9--9--9--9-|
D|-2-2-2-2-2-2-2-2--7-7-7-7-7-7-7-7------------------------------------------|


Guitar 1 (Lead)
e|---------------------------------------------------------------------------|
B|---------------------------------------------------------------------------|
G|-----------5-----------3----------------------------2----------------------|
D|-----5---5-------3---3-------2-----7--------2-3-2-3------------------------|
A|---5---3-------3---1-------2-----7----3-2-3--------------------------------|
D|-5-----------3-----------2-----7-------------------------------------------|


Guitar 1 (lead) & Guitar 2 (Rhythm)
e|---------------------------------------------------------------------------|
B|---------------------------------------------------------------------------|
G|-------------5--5--5--5--------------3--3--3--3----------------------------|
D|-5--5--5--5--5--5--5--5--3--3--3--3--3--3--3--3--2--2--2--2----7-----------|
A|-5--5--5--5--3--3--3--3--3--3--3--3--1--1--1--1--2--2--2--2----7-----------|
D|-5--5--5--5--------------3--3--3--3--------------2--2--2--2----7-----------|


[Outro]

Guitar 1 (lead) & Guitar 2 (Rhythm)
e|---------------------------------------------------------------------------|
B|---------------------------------------------------------------------------|
G|-7-7----10-10--------------------7-7----10-10------------------------------|
D|-7-7----10-10----8-8----10-10----7-7----10-10----8-8----10-10--------------|
A|-5-5----8--8-----8-8----10-10----5-5----8--8-----8-8----10-10--------------|
D|-----------------8-8----10-10--------------------8-8----10-10--------------|

e|---------------------------------------------------------------------------|
B|---------------------------------------------------------------------------|
G|-7-7----10-10--------------------7-7----10-10------------------------------|
D|-7-7----10-10----8-8----10-10----7-7----10-10----8-8----10-10--------------|
A|-5-5----8--8-----8-8----10-10----5-5----8--8-----8-8----10-10--------------|
D|-----------------8-8----10-10--------------------8-8----10-10--------------|

e|---------------------------------------------------------------------------|
B|---------------------------------------------------------------------------|
G|-7-7----10-10--------------------7-7----10-10------------------------------|
D|-7-7----10-10----8-8----10-10----7-7----10-10----8-8----10-10--------------|
A|-5-5----8--8-----8-8----10-10----5-5----8--8-----8-8----10-10--------------|
D|-----------------8-8----10-10--------------------8-8----10-10--------------|


Guitar 1 (lead)
e|---------------------------------------------------------------------------|
B|---------------------------------------------------------------------------|
G|-----2-5-2-5-4---4-3---3------2-5-2-5-4---4-3---3--------------------------|
D|-0-3-----------5-----3----0-3-----------5-----3-----(repeat until fadeout)-|
A|---------------------------------------------------------------------------|
D|---------------------------------------------------------------------------|

Guitar 2 (Rhythm)
e|---------------------------------------------------------------------------|
B|--------------------------------------------------(repeat until fadeout)---|
G|-7------10--------------------7------10------------------------------------|
D|-7------10------5------8------7------10------5------8----------------------|
A|-5------8-------5------8------5------8-------5------8----------------------|
D|----------------5------8---------------------5------8----------------------|



Legend: 
/    = slide up
\    = slide down
~    = virbato
.    = palm mute
b    = bend string
r    = release bend
x    = muted string
*    = artificial harmonic
(x)  = natural harmonic
Добавлено: 11.09.2013
Другие материалы по этой песне:
  • Аккорды и текст

Страница создана 11.09.2013
http://primanota.ru/scandal/daydream-chords.htm
Привет, Гость.
Предлагаем пройти революционный курс по гитаре.
Подарок от PrimaNota.Ru, забирай!