PrimaNota.ru - самый крупный в мире бесплатный архив песенных текстов, аккордов, табулатур и нот


Saxon - Warrior - текст песни, таба, видео

Регистрация Запомнить меня
Войти через:  Facebook Google Twitter Vk Yandex Mail.ru

Saxon - Warrior - текст песни, таба, видео

Печатать
Просмотров: 125
..  - palm mute          /  - slide up to
   - slide down to      ~  - vibrato
 h  - hammer on          b  - bend
 p  - pull off            Suffixes for bend
                          ph - pinch harmonic
                           f - full bend    h - half bend
*  - see comment           r - release      t - tap bend
X  - percussion mute       ~ - vibrato bend
@  - slight palm mute     () - ghost note, sustained note

Tune Gtr to E<

Riff A.1
|------------------------------------------|
|------------------------------------------|
|--------------------------------------7---|
|--------------------------------------7---|
|--0-0-0-3p0-0-0-0-5p0-0-0-0-3p0-0-0-0-5---|
|------------------------------------------|

Riff A.2
|------------------------------------------|
|------------------------------------------|
|------------------------------------------|
|------------------------------------------|
|--0-0-0-3p0-0-0-0-5p0-0-0-0-3p0-0-0-0-5ph-|
|------------------------------------------|

Riff B
|-------------------|
|-------------------|
|-------------------|
|--10-(b9)-7--5-----|
|--8--7--5--3-------|
|-------------------|

Riff C.1
|---------------------------------------------------|
|---------------------------------------------------|
|--(b9)------------------(b9)-----------------------|
|--(b9)------------------(b9)-----------------------|
|--7-7-7-7-7--7-7-7-7--7-7-7-7-7--7-7-7-7-----------|
|---------------------------------------------------|

Riff C.2
|---------------------------------------------|
|---------------------------------------------|
|--7-------------------7----------------------|
|--7-------------------7----------------------|
|--5-5-5-5-5--5-5-5-5--5-5-5-5-5--5-5-5-5-----|
|---------------------------------------------|

Riff D.1
|------------------------------|
|------------------------------|
|--4------------4--------------|
|--4------------4--------------|
|--2-2-2-2-2-2--2-2-2-2-2-2----|
|------------------------------|

Riff D.2
|------------------------------|
|------------------------------|
|--5------------5--------------|
|--5------------5--------------|
|--3-3-3-3-3-3--3-3-3-3-3-3----|
|------------------------------|

Riff D.3
|------------------------------|
|------------------------------|
|--7------------7--------------|
|--7------------7--------------|
|--5-5-5-5-5-5--5-5-5-5-5-5----|
|------------------------------|

Riff E
|--0-2-3-0-2-3-5-3-2-0-2-3--0-2-3-0-2-3-5-3-2-3-----|
|---------------------------------------------------|
|---------------------------------------------------|
|---------------------------------------------------|
|---------------------------------------------------|
|---------------------------------------------------|
|                                                   |
|-------------------------------------------------------------|
|-------------------------------------------------------------|
|--(b9)----5----7----(b9)-----(b9)---5----7----(b9)-----------|
|--(b9)----5----7----(b9)-----(b9)---5----7----(b9)-----------|
|--7-----3----5----7------7----3----5----7--------------------|
|-------------------------------------------------------------|

Riff F
|------------------------------------------------------|
|------------------------------------------------------|
|--(b9)------------------(b9)(b9)----------------------|
|--(b9)------------------(b9)(b9)----------------------|
|--7-------------------7-7-----------------------------|
|-----0-0-0-0-0-0-0-0-------0-0-0-0-0-0-0-0------------|

End
|------------------------------------|
|------------------------------------|
|--5-4-2----5-4-2----5-4-2----2-2----|
|--3-2-0-5--3-2-0-5--3-2-0-5--2-2----|
|--------3--------3--------3--0-0----|
|------------------------------------|
Добавлено: 25.06.2013
Другие материалы по этой песне:

Страница создана 18.03.2012
http://primanota.ru/saxon/warrior-chords.htm
Привет, Гость.
Предлагаем пройти революционный курс по гитаре.
Подарок от PrimaNota.Ru, забирай!