PrimaNota.ru - самый крупный в мире бесплатный архив песенных текстов, аккордов, табулатур и нот


Saetia - Some Natures Catch No Plagues - бас-таба, видео

Регистрация Запомнить меня
Войти через:  Facebook Google Twitter Vk Yandex Mail.ru

Saetia - Some Natures Catch No Plagues - бас-таба, видео

Печатать
Просмотров: 143
G|-------------------------------|
D|----------------------2-3-2-5-2|
A|------1-3-0-------0-3----------| x23
D|-0--3--------0--3--------------|

G|---|
D|---|
A|---|
D|-0-|

G|-7--7-7-10-9-5—-5-5-5-0-3—3-3-5-5|
D|-7—-7-7--7---7—-7-7-7---5-5-5-5-5|
A|---------------------------------| x7
D|---------------------------------|

G|------------------|
D|-----5------------|  
A|-5-8---8-7-8-7-8-7| x2
D|------------------|
                               
G|------------------|
D|-----5------------|  
A|---8---8-7-8-7-8-7| x4
D|-8----------------|

(play these ^ two bars 4 times)

G|------------------------------|
D|------------------------------|
A|------------------------------|
D|0-0-0-0-0-0-0-0-0-0---0-0—-0-0|

(^this isn't exact)

G|-10-9------9------------------|
D|------10-7---10-8-8—-8-8—8-8-8|
A|------------------------------| x12
D|------------------------------|

G|---|
D|---|
A|---|
D|-0-|

G|-7--7-7-10-9-5—-5-5-5-0-3—3-3-5-5|
D|-0—-0-0-0----0—-0-0-0---0-0-0-0-0|
A|---------------------------------| x6
D|---------------------------------|

End on:

G|-7-|
D|-0-|
A|---|
D|---|

This is my first tab so it might not be perfect but I hope it will give you the general idea.

Thanks to aggiefan33 for finding mistakes.
Добавлено: 23.07.2012
Другие материалы по этой песне:
  • Аккорды и текст

Страница создана 23.07.2012
http://primanota.ru/saetia/some-natures-catch-no-plagues-chords.htm
Привет, Гость.
Предлагаем пройти революционный курс по гитаре.
Подарок от PrimaNota.Ru, забирай!