PrimaNota.ru - самый крупный в мире бесплатный архив песенных текстов, аккордов, табулатур и нот


Ryan Adams - Lacienega just smiled - аккорды и текст, таба, видео

Регистрация Запомнить меня
Войти через:  Facebook Google Twitter Vk Yandex Mail.ru

Ryan Adams - Lacienega just smiled - аккорды и текст, таба, видео

Печатать
Просмотров: 150
Авторы музыки: Ryan Adams
Авторы текста: Ryan Adams
Lacienega just smiled
Ryan Adams
           This sounds pretty acurate and i've also added my own 
           version of the solo - thats also pretty acurate too. Enjoy! 
          
           Intro C D G X2

            (C)Oh the(D)night here it comes again(G)
            It's(C)on with the jeans the(D)jacket and the shirt(G) 
            (C)how'D I end(D)up feelin' so(G)bad 
            For(Em)such A(D)little(C)girl
            And I(C)hold you close in the(D)back of my mind(G)
            (C)feel so good but(D)damn it makes me(G)hurt 
            And(C)i'm to scared to(D)know how I(Em)feel(D)about you(C)now
            La Cienega(C)just smiled(D)see you around(G)

            G C G C

            And I(C)hold you close in the(D)back of my mind(G)
            (C)Raise my glass 'cause(D)either way(G)i'm dead
            And(C)neither of you realy(D)help me to(Em)sleep(D)anymore(C)
            (C)one breaks my(Em)body and(D)the(C)other breaks my soul
            La Cienega(C) just smiles and(D)waves goodbye(G)

            G C G C

            1st solo (acoustic)
 
            e-------------------------------------------------|
            B-------------------------------------------------|
            G--------------0---------------0-0h2-2-5----------|
            D-0h2-0h2-2p0-2---0h2-0h2-2p0-2-------------------|
            A---------------0---------------------------------|
            E-------------------------------------------------|

            
            (C)oh the(D)night here it comes again(G)
            It's(C)off with the jeans the(D)jacket and the(G)shirt
            (C)how'D i end(D)up feelin so(G) bad 
             For(Em)such A(D)little girl(C)
            And I (C)hold you close in the(D)back of my mind(G)
            (C)feels so good but(D)damn it makes me hurt(G)
             And i'm(C)to scared to(D)know how I(Em)feel(D)about you(C)now
             how I(Em)feel(D)about you(C)now
             La Cienega(C)just smiled and(D)says i'll see you around(G) 
 
             2nd Solo (electric)

             e----------------------------------------------------|
             B----------------------------------------------------|
             G--------------0----------------0-0h2-2-0------------|
             D-0h2-0h2-2p0-2---0h2-0h2-2p0-2----------------------|
             A---------------0------------------------------------|
             E----------------------------------------------------|

             Tabbed by eddie barber ryan's biggest fan! This is my favourite
             song of all time!
Добавлено: 22.02.2012
Другие материалы по этой песне:
  • Аккорды и текст

Страница создана 22.02.2012
http://primanota.ru/ryan-adams/la-cienega-just-smiled-chords.htm
Привет, Гость.
Предлагаем пройти революционный курс по гитаре.
Подарок от PrimaNota.Ru, забирай!