PrimaNota.ru - самый крупный в мире бесплатный архив песенных текстов, аккордов, табулатур и нот


Rusted Root - Ecstacy - аккорды и текст, таба, бас-таба, видео

Регистрация Запомнить меня
Войти через:  Facebook Google Twitter Vk Yandex Mail.ru

Rusted Root - Ecstacy - аккорды и текст, таба, бас-таба, видео

Печатать
Просмотров: 156
Уроки эстрадного вокала в Санкт-Петербурге
Ecstacy
Rusted Root
		   Ecstacy

Intro:

e---1----0-0-0-1------1------0-0-0-1------1--------------
B---3----3-3-3-3------3------3-3-3-3------3--------------
G---2----2-2-2-2------2------2-2-2-2------2--------------
D---0----0-0-0-0------0------0-0-0-0------0--------------
A--------------------------------------------------------
E--------------------------------------------------------

Verse: (2x's)

e--1------0----1-----1----1----------0-----1------------0-----------3------3----
B--3------3----3-----3----3----------3-----3------------1----1------1------1----
G--2------2----2-----2----2----2-----2-----2------0-----0----0----x-0----x-0----
D--0------0----0-----0----0----0-----0-----0------0-----2----2------2------2----
A-------------------------------------------------------3----3------------------
E-------------------------------------------------------------------------------

e----------3----3-------------------------3-----------------------------------
B---0--0---0----0-----0--0------0-----0---0---------3-------------------------
G---0--0---0----0-----0--0------0---------0--0------2-------------------------
D---0--0---0----0------------0------------0--0------0------0----------0-------
A----------x------------------------------------------------------------------
E----------3------------------------------------------------------------------


Pre-chorus:

e--0---1---------0---1---------0----0---------------0---1--------0--0--0--1----
B--3---3---------3---3---0--0--0----0---------------3---3--------3--3--3--3----
G--2---2-----2---2---2---0--0--0----0---------------2---2--------2--2--2--2----
D--0---0-----0---0---0------0--0----2---------------0---0-----0--0--0--0--0----
A----------------0------------------2------------------------------------------
E-----------------------------------0------------------------------------------

e---------0-----0------0----0-----
B---0--0--0-----0------0----0-----
G---0--0--0-----0------0----0-----
D---0--0--0-----2------2----2-----
A---------------2------2----2-----
E---------------2------2----2-----


1st solo:

e-5-5-5-5-6^5-5-5-5-5-5-5-5-5-5-5-5-5-5-5-5-5-5-5-5-5-5-5-5-5-5-5-5\-/5-5-5-5-5
B------------------------------------------------------------------------------
G------------------------------------------------------------------------------
D------------------------------------------------------------------------------
A------------------------------------------------------------------------------
E------------------------------------------------------------------------------

e-5-5-5-5-5-5-5-5\-/5-5-5-5-5-5-5-5-5-5-5-5-8/10-15-15-15-15-15---13-13-13---12
B------------------------------------------------------------------------------
G------------------------------------------------------------------------------
D------------------------------------------------------------------------------
A------------------------------------------------------------------------------
E------------------------------------------------------------------------------

e-12--13---12-------12-----------------15--12--13--12--13--12-------12---------
B--------------15---------13------13---------------------------15-------13--13-
G------------------------------------------------------------------------------
D------------------------------------------------------------------------------
A------------------------------------------------------------------------------
E------------------------------------------------------------------------------

e--0--------
B--X--------
G--X----X---
D-------0---
A-----------
E-----------

Chorus:

   I wouldn't want to be living in a world of ecstacy with you.

e--1----1-------1-----1---1--------1----------0--0--1-----------------3--3-3-3-
B--3----3-------3-----3---3--------3----------3--3--3-------1---1-----1--1-1-1-
G--2----2-------2-----2---2--------2----------2--2--2---0---0---0-----0--0-0-0-
D--0----0-------0-----0---0--------0-------0--0--0--0---0---2---2-----2--2-2-2-
A-----------------------------------------------------------3---3-----3--3-3-3-
E------------------------------------------------------------------------------

                                I wouldn't want to be living in a world of ecst-

e--3---3--------3-3-3--3-3-3-3--1---1--1---0--0--0--0----------------------0--0-
B--0---0------0-0-0-0--0-0-0-0--3---3--3---3--3--3--3--3--------3----------3--3-
G--0---0------0-0-0-0--0-0-0-0--2---2--2---2--2--2--2--2--------2----------2--2-
D--0---0------0-0-0-0--0-0-0-0--0---0--0---0--0--0--0--0--------0-------0--0--0-
A--x---x--------x-x-x--x-x-x-x--------------------------------------------------
E--3---3--------3-3-3--3-3-3-3--------------------------------------------------

   asy  with  you.

e---1--------------------------3-------3----------3-----
B---3---------1-----1----------1-------1---0--0---0-----
G---2--0-0----0-----0----------0-------0---0--0---0-----
D---0--0-0----2-----2----2--2--2-------2----------0-----
A-------------3-----3----3--3-------3--3----------x-----
E-------------------------------------------------3-----
2nd solo:

e-1-1-1-1-1-0----1-1-1-1-1-0----------0----1----3----5---6--6-----8-----8/10--10
B-------------3--------------3---3-3--------------------------------------------
G-------------------------------------------------------------------------------
D-------------------------------------------------------------------------------
A-------------------------------------------------------------------------------
E-------------------------------------------------------------------------------

e-10-10-10-10-10-10-10-10-10-10\8--8--8--6-6--5--5^6^5-----5--5--5^6^5-----5----
B-------------------------------------------------------8---------------8-------
G-------------------------------------------------------------------------------
D-------------------------------------------------------------------------------
A-------------------------------------------------------------------------------
E-------------------------------------------------------------------------------

e-5^6^5---5--5--5-----8---6--5--6--5-----5--------------------------5-6-8-8-8-8-
B-------8-----------------------------8-----6~~---5--5-5^6--6--8--8-------------
G-------------------------------------------------------------------------------
D-------------------------------------------------------------------------------
A-------------------------------------------------------------------------------
E-------------------------------------------------------------------------------

e-8/10-10-----10-----X---10-----12------13-13-13-13/15--15-15---15-15-15-15-15--
B-------------------------------------------------------------------------------
G-------------------------------------------------------------------------------
D-------------------------------------------------------------------------------
A-------------------------------------------------------------------------------
E-------------------------------------------------------------------------------

e-13-13---13-12-13-12------------15-15-15-15-15-15-13-13---13-12-13-12--12-15-15
B---------------------15--13--X--12-12----------------------------------13------
G-------------------------------------------------------------------------------
D-------------------------------------------------------------------------------
A-------------------------------------------------------------------------------
E-------------------------------------------------------------------------------

e-12-12--------15^12-12-13-12-13-12-12----12-15-12-12-13-12-12----12-12-12------
B-------13-13--------------------------13----12-------------12-15-----------13--
G-------------------------------------------------------------------------------
D-------------------------------------------------------------------------------
A-------------------------------------------------------------------------------
E-------------------------------------------------------------------------------

e----12-12--12-12-12-12-12--13--13--13-13-13--12---12---12-12-12-13--13-13-13-13
B-13-13-13--13-13-13-13-13--13--13--13-13-13--13---13---13-13-13-13--13-13-13-13
G-------------------------------------------------------------------------------
D-------------------------------------------------------------------------------
A-------------------------------------------------------------------------------
E-------------------------------------------------------------------------------

e-13-13--12---12---12-12--12-12----12-12-12--------12--
B-13-13--12---12---12-12--12-12-12-12-12-12--X-X---10--
G------------------------------------------------------
D------------------------------------------------------
A------------------------------------------------------
E------------------------------------------------------

e-5------------------------------5-------8---6-5-6-5---5------------------------
B---6------------------------------6---------------------6----------------------
G-----7-----5---7~~----5^7--5^7------7---------------------7--5--7~~--5^7--5^7--
D-------------------------------------------------------------------------------
A-------------------------------------------------------------------------------
E-------------------------------------------------------------------------------

e-5-------8-
B---6-------
G-----7-----
D-----------
A-----------
E-----------

Bridge: (chords)

e---0-----0---0--
B---6-----6---8--
G---7-----7---9--
D---0-----8--10--
A---0------------
E----------------

3rd solo:

e--1-1-1-1-1-0----1-1-1-1-1-0---0--1^0----1^0---------1-0---1^0-3^0-0-1-0-1-1-1-
B--------------3--------------3--------3------3~~~~~~-----3---------------------
G-------------------------------------------------------------------------------
D-------------------------------------------------------------------------------
A-------------------------------------------------------------------------------
E-------------------------------------------------------------------------------

e-0-3^0-0-1-1-1--1--1--0------1-1-1-1-1-0----------0-1---1-1-1-1-1-0-----1-1-1--
B------------------------3^0--------------3-3^0--3-------------------3^0--------
G-------------------------------------------------------------------------------
D-------------------------------------------------------------------------------
A-------------------------------------------------------------------------------
E-------------------------------------------------------------------------------

e-1-1-0---0--1-0---0-1-0-----0-1-0-3---3-1-0-1--1-1-1-1-1-0---0-1-1-1-1-1-0-----
B-------3--------3-------3^0--------------------------------3---------------3---
G-------------------------------------------------------------------------------
D-------------------------------------------------------------------------------
A-------------------------------------------------------------------------------
E-------------------------------------------------------------------------------

e----------0-0-0-0-0-0-0-1-1-1-1--
B--3-3---3------------------------
G---------------------------------
D---------------------------------
A---------------------------------
E---------------------------------



End:

e--1-------1-1-1-1------1--------1-1-1-1-----1--------
B--3-------3-3-3-3------3--------3-3-3-3-----3--------
G--2-------2-2-2-2------2--------2-2-2-2-----2--------
D--0-------0-0-0-0------0----------0-0-0-----0--------
A-----------------------------------------------------
E-----------------------------------------------------



From jwjenks@ix.netcom.com Thu May 15 17:12:30 1997

TAB: "Ecstacy" by Rusted Root

Album:WHEN I WOKE
track#: 2
submitted by: Jeff Jenks (jwjenks@ix.netcom.com)


Ecstacy

Intro:

e---1----0-0-0-1------1------0-0-0-1------1--------------
B---3----3-3-3-3------3------3-3-3-3------3--------------
G---2----2-2-2-2------2------2-2-2-2------2--------------
D---0----0-0-0-0------0------0-0-0-0------0--------------
A--------------------------------------------------------
E--------------------------------------------------------

Verse: (2x's)

e--1------0----1-----1----1----------0-----1------------0-----------3------3----
B--3------3----3-----3----3----------3-----3------------1----1------1------1----
G--2------2----2-----2----2----2-----2-----2------0-----0----0----x-0----x-0----
D--0------0----0-----0----0----0-----0-----0------0-----2----2------2------2----
A-------------------------------------------------------3----3------------------
E-------------------------------------------------------------------------------

e----------3----3-------------------------3-----------------------------------
B---0--0---0----0-----0--0------0-----0---0---------3-------------------------
G---0--0---0----0-----0--0------0---------0--0------2-------------------------
D---0--0---0----0------------0------------0--0------0------0----------0-------
A----------x------------------------------------------------------------------
E----------3------------------------------------------------------------------


Pre-chorus:

e--0---1---------0---1---------0----0---------------0---1--------0--0--0--1----
B--3---3---------3---3---0--0--0----0---------------3---3--------3--3--3--3----
G--2---2-----2---2---2---0--0--0----0---------------2---2--------2--2--2--2----
D--0---0-----0---0---0------0--0----2---------------0---0-----0--0--0--0--0----
A----------------0------------------2------------------------------------------
E-----------------------------------0------------------------------------------

e---------0-----0------0----0-----
B---0--0--0-----0------0----0-----
G---0--0--0-----0------0----0-----
D---0--0--0-----2------2----2-----
A---------------2------2----2-----
E---------------2------2----2-----


1st solo:

e-5-5-5-5-6^5-5-5-5-5-5-5-5-5-5-5-5-5-5-5-5-5-5-5-5-5-5-5-5-5-5-5-5\-/5-5-5-5-5
B------------------------------------------------------------------------------
G------------------------------------------------------------------------------
D------------------------------------------------------------------------------
A------------------------------------------------------------------------------
E------------------------------------------------------------------------------

e-5-5-5-5-5-5-5-5\-/5-5-5-5-5-5-5-5-5-5-5-5-8/10-15-15-15-15-15---13-13-13---12
B------------------------------------------------------------------------------
G------------------------------------------------------------------------------
D------------------------------------------------------------------------------
A------------------------------------------------------------------------------
E------------------------------------------------------------------------------

e-12--13---12-------12-----------------15--12--13--12--13--12-------12---------
B--------------15---------13------13---------------------------15-------13--13-
G------------------------------------------------------------------------------
D------------------------------------------------------------------------------
A------------------------------------------------------------------------------
E------------------------------------------------------------------------------

e--0--------
B--X--------
G--X----X---
D-------0---
A-----------
E-----------

Chorus:

   I wouldn't want to be living in a world of ecstacy with you.

e--1----1-------1-----1---1--------1----------0--0--1-----------------3--3-3-3-
B--3----3-------3-----3---3--------3----------3--3--3-------1---1-----1--1-1-1-
G--2----2-------2-----2---2--------2----------2--2--2---0---0---0-----0--0-0-0-
D--0----0-------0-----0---0--------0-------0--0--0--0---0---2---2-----2--2-2-2-
A-----------------------------------------------------------3---3-----3--3-3-3-
E------------------------------------------------------------------------------

                                I wouldn't want to be living in a world
of ecst-

e--3---3--------3-3-3--3-3-3-3--1---1--1---0--0--0--0----------------------0--0-
B--0---0------0-0-0-0--0-0-0-0--3---3--3---3--3--3--3--3--------3----------3--3-
G--0---0------0-0-0-0--0-0-0-0--2---2--2---2--2--2--2--2--------2----------2--2-
D--0---0------0-0-0-0--0-0-0-0--0---0--0---0--0--0--0--0--------0-------0--0--0-
A--x---x--------x-x-x--x-x-x-x--------------------------------------------------
E--3---3--------3-3-3--3-3-3-3--------------------------------------------------

   asy  with  you.

e---1--------------------------3-------3----------3-----
B---3---------1-----1----------1-------1---0--0---0-----
G---2--0-0----0-----0----------0-------0---0--0---0-----
D---0--0-0----2-----2----2--2--2-------2----------0-----
A-------------3-----3----3--3-------3--3----------x-----
E-------------------------------------------------3-----
2nd solo:

e-1-1-1-1-1-0----1-1-1-1-1-0----------0----1----3----5---6--6-----8-----8/10--10
B-------------3--------------3---3-3--------------------------------------------
G-------------------------------------------------------------------------------
D-------------------------------------------------------------------------------
A-------------------------------------------------------------------------------
E-------------------------------------------------------------------------------

e-10-10-10-10-10-10-10-10-10-10\8--8--8--6-6--5--5^6^5-----5--5--5^6^5-----5----
B-------------------------------------------------------8---------------8-------
G-------------------------------------------------------------------------------
D-------------------------------------------------------------------------------
A-------------------------------------------------------------------------------
E-------------------------------------------------------------------------------

e-5^6^5---5--5--5-----8---6--5--6--5-----5--------------------------5-6-8-8-8-8-
B-------8-----------------------------8-----6~~---5--5-5^6--6--8--8-------------
G-------------------------------------------------------------------------------
D-------------------------------------------------------------------------------
A-------------------------------------------------------------------------------
E-------------------------------------------------------------------------------

e-8/10-10-----10-----X---10-----12------13-13-13-13/15--15-15---15-15-15-15-15--
B-------------------------------------------------------------------------------
G-------------------------------------------------------------------------------
D-------------------------------------------------------------------------------
A-------------------------------------------------------------------------------
E-------------------------------------------------------------------------------

e-13-13---13-12-13-12------------15-15-15-15-15-15-13-13---13-12-13-12--12-15-15
B---------------------15--13--X--12-12----------------------------------13------
G-------------------------------------------------------------------------------
D-------------------------------------------------------------------------------
A-------------------------------------------------------------------------------
E-------------------------------------------------------------------------------

e-12-12--------15^12-12-13-12-13-12-12----12-15-12-12-13-12-12----12-12-12------
B-------13-13--------------------------13----12-------------12-15-----------13--
G-------------------------------------------------------------------------------
D-------------------------------------------------------------------------------
A-------------------------------------------------------------------------------
E-------------------------------------------------------------------------------

e----12-12--12-12-12-12-12--13--13--13-13-13--12---12---12-12-12-13--13-13-13-13
B-13-13-13--13-13-13-13-13--13--13--13-13-13--13---13---13-13-13-13--13-13-13-13
G-------------------------------------------------------------------------------
D-------------------------------------------------------------------------------
A-------------------------------------------------------------------------------
E-------------------------------------------------------------------------------

e-13-13--12---12---12-12--12-12----12-12-12--------12--
B-13-13--12---12---12-12--12-12-12-12-12-12--X-X---10--
G------------------------------------------------------
D------------------------------------------------------
A------------------------------------------------------
E------------------------------------------------------

e-5------------------------------5-------8---6-5-6-5---5------------------------
B---6------------------------------6---------------------6----------------------
G-----7-----5---7~~----5^7--5^7------7---------------------7--5--7~~--5^7--5^7--
D-------------------------------------------------------------------------------
A-------------------------------------------------------------------------------
E-------------------------------------------------------------------------------

e-5-------8-
B---6-------
G-----7-----
D-----------
A-----------
E-----------

Bridge: (chords)

e---0-----0---0--
B---6-----6---8--
G---7-----7---9--
D---0-----8--10--
A---0------------
E----------------

3rd solo:

e--1-1-1-1-1-0----1-1-1-1-1-0---0--1^0----1^0---------1-0---1^0-3^0-0-1-0-1-1-1-
B--------------3--------------3--------3------3~~~~~~-----3---------------------
G-------------------------------------------------------------------------------
D-------------------------------------------------------------------------------
A-------------------------------------------------------------------------------
E-------------------------------------------------------------------------------

e-0-3^0-0-1-1-1--1--1--0------1-1-1-1-1-0----------0-1---1-1-1-1-1-0-----1-1-1--
B------------------------3^0--------------3-3^0--3-------------------3^0--------
G-------------------------------------------------------------------------------
D-------------------------------------------------------------------------------
A-------------------------------------------------------------------------------
E-------------------------------------------------------------------------------

e-1-1-0---0--1-0---0-1-0-----0-1-0-3---3-1-0-1--1-1-1-1-1-0---0-1-1-1-1-1-0-----
B-------3--------3-------3^0--------------------------------3---------------3---
G-------------------------------------------------------------------------------
D-------------------------------------------------------------------------------
A-------------------------------------------------------------------------------
E-------------------------------------------------------------------------------

e----------0-0-0-0-0-0-0-1-1-1-1--
B--3-3---3------------------------
G---------------------------------
D---------------------------------
A---------------------------------
E---------------------------------



End:

e--1-------1-1-1-1------1--------1-1-1-1-----1--------
B--3-------3-3-3-3------3--------3-3-3-3-----3--------
G--2-------2-2-2-2------2--------2-2-2-2-----2--------
D--0-------0-0-0-0------0----------0-0-0-----0--------
A-----------------------------------------------------
E-----------------------------------------------------     
Добавлено: 30.08.2013
Другие материалы по этой песне:
  • Аккорды и текст

Страница создана 28.02.2012
http://primanota.ru/rusted-root/ecstacy-chords.htm
Привет, Гость.
Предлагаем пройти революционный курс по гитаре.
Подарок от PrimaNota.Ru, забирай!