PrimaNota.ru - самый крупный в мире бесплатный архив песенных текстов, аккордов, табулатур и нот


Ruoska - Tuonen Viemää - таба, видео

Регистрация Запомнить меня
Войти через:  Facebook Google Twitter Vk Yandex Mail.ru

Ruoska - Tuonen Viemää - таба, видео

Печатать
Просмотров: 114
-------------------------------------------------------------------------------
                             Tuonen Viemää - Ruoska
-------------------------------------------------------------------------------
Tabbed by: Marty's Guitar Studio
E-mail: MartinS11@seznam.cz

Tuning: Drop C (C G C F A D)

.  - palm muted
/  - slide down
\  - slide up

 
Intro

D|---------------------------------------------------------------------------|
A|---------------------------------------------------------------------------|
F|---------------------------------------------------------------------------|
C|--5-5-5-5-5-5-5-5--10-8/7-3--3\7--5-5-5-5-5-5-5-5--10-8/10-12--10\8--------|
G|--5-5-5-5-5-5-5-5--10-8/7-3--3\7--5-5-5-5-5-5-5-5--10-8/10-12--10\8--------|
C|--5-5-5-5-5-5-5-5--10-8/7-3--3\7--5-5-5-5-5-5-5-5--10-8/10-12--10\8--------|

D|---------------------------------------------------------------------------|
A|---------------------------------------------------------------------------|
F|---------------------------------------------------------------------------|
C|--5-5-5-5-5-5-5-5--10-8/7-3--3\7--5-5-5-5-5-5-5-5--8-8-8-8-12-12-12-12-----|
G|--5-5-5-5-5-5-5-5--10-8/7-3--3\7--5-5-5-5-5-5-5-5--8-8-8-8-12-12-12-12-----|
C|--5-5-5-5-5-5-5-5--10-8/7-3--3\7--5-5-5-5-5-5-5-5--8-8-8-8-12-12-12-12-----|

D|---------------------------------------------------------------------------|
A|---------------------------------------------------------------------------|
F|---------------------------------------------------------------------------|
C|--5-5-5-5-5-5-5-5--10-8/7-3--3\7--5-5-5-5-5-5-5-5--10-8/10-12--10\8--------|
G|--5-5-5-5-5-5-5-5--10-8/7-3--3\7--5-5-5-5-5-5-5-5--10-8/10-12--10\8--------|
C|--5-5-5-5-5-5-5-5--10-8/7-3--3\7--5-5-5-5-5-5-5-5--10-8/10-12--10\8--------|

D|---------------------------------------------------------------------------|
A|---------------------------------------------------------------------------|
F|---------------------------------------------------------------------------|
C|--5-5-5-5-5-5-5-5--10-8/7-3--3\7--5-5-5-5-5-5-5-5--8-8-8-8-12-12-12-12--5------------------------|
G|--5-5-5-5-5-5-5-5--10-8/7-3--3\7--5-5-5-5-5-5-5-5--8-8-8-8-12-12-12-12--5-(let it ring)-5-5-5----|
C|--5-5-5-5-5-5-5-5--10-8/7-3--3\7--5-5-5-5-5-5-5-5--8-8-8-8-12-12-12-12--5---------------5-5-5----|
                                                                                          * * *

1st Verse

D|---------------------------------------------------------------------------|
A|---------------------------------------------------------------------------|
F|---------------------------------------------------------------------------|
C|---------------------------------------------------------------------------|
G|---------------------------------------------------------------------------|
C|--0-0-0-0-0-0-0-0-1-1-1-1-1-1-1-1-3-3-3-3-3-3-3-3-5-5-5-5-5-5-5-5----------|
    . . . . . . . . . . . . . . . . . . . . . . . . . . . . . . . .

D|---------------------------------------------------------------------------|
A|---------------------------------------------------------------------------|
F|---------------------------------------------------------------------------|
C|---------------------------------------------------------------------------|
G|---------------------------------------------------------------------------|
C|--0-0-0-0-0-0-0-0-1-1-1-1-1-1-1-1-3-3-3-3-3-3-3-3-5-5-5-5-5-5-5-5----------|
    . . . . . . . . . . . . . . . . . . . . . . . . . . . . . . . .

D|---------------------------------------------------------------------------|
A|---------------------------------------------------------------------------|
F|---------------------------------------------------------------------------|
C|---------------------------------------------------------------------------|
G|---------------------------------------------------------------------------|
C|--0-0-0-0-0-0-0-0-1-1-1-1-1-1-1-1-3-3-3-3-3-3-3-3-5-5-5-5-5-5-5-5----------|
    . . . . . . . . . . . . . . . . . . . . . . . . . . . . . . . .

D|---------------------------------------------------------------------------|
A|---------------------------------------------------------------------------|
F|---------------------------------------------------------------------------|
C|---------------------------------------------------7-7-7-7-7-7-7-7---------|
G|---------------------------------------------------5-5-5-5-5-5-5-5---------|
C|--0-0-0-0-0-0-0-0-1-1-1-1-1-1-1-1-3-3-3-3-3-3-3-3--------------------------|
    . . . . . . . . . . . . . . . . . . . . . . . . 
 
Exactly as in the Intro

D|---------------------------------------------------------------------------|
A|---------------------------------------------------------------------------|
F|---------------------------------------------------------------------------|
C|--5-5-5-5-5-5-5-5--10-8/7-3--3\7--5-5-5-5-5-5-5-5--10-8/10-12--10\8--------|
G|--5-5-5-5-5-5-5-5--10-8/7-3--3\7--5-5-5-5-5-5-5-5--10-8/10-12--10\8--------|
C|--5-5-5-5-5-5-5-5--10-8/7-3--3\7--5-5-5-5-5-5-5-5--10-8/10-12--10\8--------|

D|---------------------------------------------------------------------------|
A|---------------------------------------------------------------------------|
F|---------------------------------------------------------------------------|
C|--5-5-5-5-5-5-5-5--10-8/7-3--3\7--5-5-5-5-5-5-5-5--8-8-8-8-12-12-12-12-----|
G|--5-5-5-5-5-5-5-5--10-8/7-3--3\7--5-5-5-5-5-5-5-5--8-8-8-8-12-12-12-12-----|
C|--5-5-5-5-5-5-5-5--10-8/7-3--3\7--5-5-5-5-5-5-5-5--8-8-8-8-12-12-12-12-----|

D|---------------------------------------------------------------------------|
A|---------------------------------------------------------------------------|
F|---------------------------------------------------------------------------|
C|--5-5-5-5-5-5-5-5--10-8/7-3--3\7--5-5-5-5-5-5-5-5--10-8/10-12--10\8--------|
G|--5-5-5-5-5-5-5-5--10-8/7-3--3\7--5-5-5-5-5-5-5-5--10-8/10-12--10\8--------|
C|--5-5-5-5-5-5-5-5--10-8/7-3--3\7--5-5-5-5-5-5-5-5--10-8/10-12--10\8--------|

D|---------------------------------------------------------------------------|
A|---------------------------------------------------------------------------|
F|---------------------------------------------------------------------------|
C|--5-5-5-5-5-5-5-5--10-8/7-3--3\7--5-5-5-5-5-5-5-5--8-8-8-8-12-12-12-12--5------------------------|
G|--5-5-5-5-5-5-5-5--10-8/7-3--3\7--5-5-5-5-5-5-5-5--8-8-8-8-12-12-12-12--5-(let it ring)-5-5-5----|
C|--5-5-5-5-5-5-5-5--10-8/7-3--3\7--5-5-5-5-5-5-5-5--8-8-8-8-12-12-12-12--5---------------5-5-5----|
                                                                                          . . .
2nd Verse

D|---------------------------------------------------------------------------|
A|---------------------------------------------------------------------------|
F|---------------------------------------------------------------------------|
C|---------------------------------------------------------------------------|
G|---------------------------------------------------------------------------|
C|--0-0-0-0-0-0-0-0-1-1-1-1-1-1-1-1-3-3-3-3-3-3-3-3-5-5-5-5-5-5-5-5----------|
    . . . . . . . . . . . . . . . . . . . . . . . . . . . . . . . .

D|---------------------------------------------------------------------------|
A|---------------------------------------------------------------------------|
F|---------------------------------------------------------------------------|
C|---------------------------------------------------------------------------|
G|---------------------------------------------------------------------------|
C|--0-0-0-0-0-0-0-0-1-1-1-1-1-1-1-1-3-3-3-3-3-3-3-3-5-5-5-5-5-5-5-5----------|
    . . . . . . . . . . . . . . . . . . . . . . . . . . . . . . . .

D|---------------------------------------------------------------------------|
A|---------------------------------------------------------------------------|
F|---------------------------------------------------------------------------|
C|---------------------------------------------------------------------------|
G|---------------------------------------------------------------------------|
C|--0-0-0-0-0-0-0-0-1-1-1-1-1-1-1-1-3-3-3-3-3-3-3-3-5-5-5-5-5-5-5-5----------|
    . . . . . . . . . . . . . . . . . . . . . . . . . . . . . . . .

D|---------------------------------------------------------------------------|
A|---------------------------------------------------------------------------|
F|---------------------------------------------------------------------------|
C|---------------------------------------------------7-7-7-7-7-7-7-7---------|
G|---------------------------------------------------5-5-5-5-5-5-5-5---------|
C|--0-0-0-0-0-0-0-0-1-1-1-1-1-1-1-1-3-3-3-3-3-3-3-3--------------------------|
    . . . . . . . . . . . . . . . . . . . . . . . .

Intro again

D|---------------------------------------------------------------------------|
A|---------------------------------------------------------------------------|
F|---------------------------------------------------------------------------|
C|--5-5-5-5-5-5-5-5--10-8/7-3--3\7--5-5-5-5-5-5-5-5--10-8/10-12--10\8--------|
G|--5-5-5-5-5-5-5-5--10-8/7-3--3\7--5-5-5-5-5-5-5-5--10-8/10-12--10\8--------|
C|--5-5-5-5-5-5-5-5--10-8/7-3--3\7--5-5-5-5-5-5-5-5--10-8/10-12--10\8--------|

D|---------------------------------------------------------------------------|
A|---------------------------------------------------------------------------|
F|---------------------------------------------------------------------------|
C|--5-5-5-5-5-5-5-5--10-8/7-3--3\7--5-5-5-5-5-5-5-5--8-8-8-8-12-12-12-12-----|
G|--5-5-5-5-5-5-5-5--10-8/7-3--3\7--5-5-5-5-5-5-5-5--8-8-8-8-12-12-12-12-----|
C|--5-5-5-5-5-5-5-5--10-8/7-3--3\7--5-5-5-5-5-5-5-5--8-8-8-8-12-12-12-12-----|

D|---------------------------------------------------------------------------|
A|---------------------------------------------------------------------------|
F|---------------------------------------------------------------------------|
C|--5-5-5-5-5-5-5-5--10-8/7-3--3\7--5-5-5-5-5-5-5-5--10-8/10-12--10\8--------|
G|--5-5-5-5-5-5-5-5--10-8/7-3--3\7--5-5-5-5-5-5-5-5--10-8/10-12--10\8--------|
C|--5-5-5-5-5-5-5-5--10-8/7-3--3\7--5-5-5-5-5-5-5-5--10-8/10-12--10\8--------|

D|---------------------------------------------------------------------------|
A|---------------------------------------------------------------------------|
F|---------------------------------------------------------------------------|
C|--5-5-5-5-5-5-5-5--10-8/7-3--3\7--5-5-5-5-5-5-5-5--8-8-8-8-12-12-12-12--8---------------|
G|--5-5-5-5-5-5-5-5--10-8/7-3--3\7--5-5-5-5-5-5-5-5--8-8-8-8-12-12-12-12--8-(let it ring)-|
C|--5-5-5-5-5-5-5-5--10-8/7-3--3\7--5-5-5-5-5-5-5-5--8-8-8-8-12-12-12-12--8---------------|
                                                                                       
Bridge

D|-----------------------------------------------------------------------------------|
A|-----------------------------------------------------------------------------------|
F|-----------------------------------------------------------------------------------|
C|--5------7------5-5-5-5------5-5-5-5------5-5-5-5------5-5-5-5---8-8-8-8--0-0-0-0---|
G|--5------5------5-5-5-5------5-5-5-5------5-5-5-5------5-5-5-5---8-8-8-8--0-0-0-0---|
C|--5-------------5-5-5-5------5-5-5-5------5-5-5-5------5-5-5-5---8-8-8-8--0-0-0-0---|


Outro is the same as Intro

D|---------------------------------------------------------------------------|
A|---------------------------------------------------------------------------|
F|---------------------------------------------------------------------------|
C|--5-5-5-5-5-5-5-5--10-8/7-3--3\7--5-5-5-5-5-5-5-5--10-8/10-12--10\8--------|
G|--5-5-5-5-5-5-5-5--10-8/7-3--3\7--5-5-5-5-5-5-5-5--10-8/10-12--10\8--------|
C|--5-5-5-5-5-5-5-5--10-8/7-3--3\7--5-5-5-5-5-5-5-5--10-8/10-12--10\8--------|

D|---------------------------------------------------------------------------|
A|---------------------------------------------------------------------------|
F|---------------------------------------------------------------------------|
C|--5-5-5-5-5-5-5-5--10-8/7-3--3\7--5-5-5-5-5-5-5-5--8-8-8-8-12-12-12-12-----|
G|--5-5-5-5-5-5-5-5--10-8/7-3--3\7--5-5-5-5-5-5-5-5--8-8-8-8-12-12-12-12-----|
C|--5-5-5-5-5-5-5-5--10-8/7-3--3\7--5-5-5-5-5-5-5-5--8-8-8-8-12-12-12-12-----|

D|---------------------------------------------------------------------------|
A|---------------------------------------------------------------------------|
F|---------------------------------------------------------------------------|
C|--5-5-5-5-5-5-5-5--10-8/7-3--3\7--5-5-5-5-5-5-5-5--10-8/10-12--10\8--------|
G|--5-5-5-5-5-5-5-5--10-8/7-3--3\7--5-5-5-5-5-5-5-5--10-8/10-12--10\8--------|
C|--5-5-5-5-5-5-5-5--10-8/7-3--3\7--5-5-5-5-5-5-5-5--10-8/10-12--10\8--------|

D|---------------------------------------------------------------------------|
A|---------------------------------------------------------------------------|
F|---------------------------------------------------------------------------|
C|--5-5-5-5-5-5-5-5--10-8/7-3--3\7--5-5-5-5-5-5-5-5--8-8-8-8-12-12-12-12--5-----------------|
G|--5-5-5-5-5-5-5-5--10-8/7-3--3\7--5-5-5-5-5-5-5-5--8-8-8-8-12-12-12-12--5-(let it ring)---|
C|--5-5-5-5-5-5-5-5--10-8/7-3--3\7--5-5-5-5-5-5-5-5--8-8-8-8-12-12-12-12--5-----------------|
                                                                                          
Добавлено: 01.01.2016
Другие материалы по этой песне:

Страница создана 01.01.2016
http://primanota.ru/ruoska/tuonen-viemaa-chords.htm
Привет, Гость.
Предлагаем пройти революционный курс по гитаре.
Подарок от PrimaNota.Ru, забирай!