PrimaNota.ru - самый крупный в мире бесплатный архив песенных текстов, аккордов, табулатур и нот


Running Wild - Riding The Storm - текст песни, таба, видео

Регистрация Запомнить меня
Войти через:  Facebook Google Twitter Vk Yandex Mail.ru

Running Wild - Riding The Storm - текст песни, таба, видео

Печатать
Просмотров: 316
                                                         riding the storm

                                                                 [ tabs ]

 Riding the Storm

 Transcription by erikgotborn@hotmail.com (erik gotborn)

 Taken from the album "Death or Glory".

 Some riffs are played with muted strings, and I haven't count how many
 times they play on every chord so you have to figure that out for
 yourself. All comments are welcome about the tabs!

 Riff 1
 E -------------------------------------------------
 B -------------------------------------------------
 G -------------------------------2-----------------
 D -------------------------3---5----5-3-2-----3--2-
 A --5---7-8--7-5-3--0--5-------------------3-------
 E -------------------------------------------------

 Riff 2
 E ---------------------------------
 B ---------------------------------
 G ---------------------------------
 D --0-0-0--2-2-2--3--5-7-7-7-7-5-3-
 A ---------------------------------
 E ---------------------------------

 Riff 3
     <--3x->           <--3x->
 E ----------------------------------
 B ----------------------------------
 G ----------------------------------
 D ----7-5---10---7-5----7-5----3--5-
 A --5-----8-----------5-----8--1--3-
 E ----------------------------------
     x x x x           x x x x

 Riff 4a
 E -------------------------------------------
 B -------------------------------------------
 G -------------------------------------------
 D ----------7-5---------------7-5---10---7-5-
 A --3-----5-----8--5-5-5-5--5-----8----------
 E --1----------------------------------------
     x              x x x x

 Riff 4b
 E -------------------------------------------
 B -------------------------------------------
 G -------------------------------------------
 D --5-------7-5---------------7-5---10---7-5-
 A --3-----5-----8--5-5-5-5--5-----8----------
 E -------------------------------------------
     x              x x x x

 Riff 4c
 E -----------------------
 B -----------------------
 G -----------------------
 D --5----3----7--3--5--1-
 A --3----1----5--1--3--0-
 E -----------------------
     x

 Riff 5
 E -------------------------------
 B -------------------------------
 G -----------------------------1-
 D --7--------7-----------------2-
 A --5----3---5---3-----5----3--2-
 E -------1-------1-----3----1----

 Riff 6
 E ------------------------------------------------
 B ------------------------------------------------
 G ----------------------5-5-----------------------
 D --7--7-7--7-7-5-5-7-7-----7-7-5-5-5-5-3-3-5-----
 A --5--5-5------------------------------------3-3-
 E ------------------------------------------------

 E ------------------------------------------------
 B ------------------------------------------------
 G ------------------------------------------------
 D --7--7-7--5-5-3-3-5-5-7-7-5-5-3-3-3-3-----3-----
 A --5--5-5------------------------------3-3---5-5-
 E ------------------------------------------------

 Riff 7a
 E -----------------------------------------------
 B -----------------------------------------------
 G ----------5--7--5-----------------5--7--5------
 D --7-7--7--3--5--3--3--5---7-7--7--3--5--3--7-5-
 A --5-5--5-----------1--3---5-5--5-----------5-3-
 E -----------------------------------------------

 Riff 7b
 E -----------------------------------------------
 B -----------------------------------------------
 G -----------------------------------------------
 D ----------5--7--5-----------------5--7--5------
 A --7-7--7--3--5--3--3--5---7-7--7--3--5--3--7-5-
 E --5-5--5-----------1--3---5-5--5-----------5-3-

 Riff 8
 E ----
 A ----
 G ----
 D --7-
 A --5-
 E ----

 RIDING THE STORM

 Riff 1 x4
 Riff 2 x4
 Riff 1 x2
 Riff 1 + 6 (played by guitar 2) x2
 Riff 3 x1
 Riff 1 + 6 x2
 Riff 3 x2
 Riff 4a x2
 Riff 4b x1
 Riff 4c x1
 Breaking the waves, a ride on the wild
 raging sea
 Playing with fortune, oh, what a
 lust to be free
 Flashlights and thunder, the
 prattering rain on the hull
 From a stormy horizon we get our
 course
 The cry of freedom

 Riff 5 x2
 Face in the wind , we're riding
 the storm
 We'll stay our course whatever
 will come
 Wandering souls in the sea of
 the damned
 Death or glory, oh, oh we're riding
 the storm

 Riff 1 x2
 Riff 3 x2
 Riff 4a x2
 Riff 4b x1
 Riff 4c x1
 Cracks in the planks, the rigging
 upwards and down
 Staggering masts, the pounding
 splash of the prow
 The wind in our sails, our flag
 flies high on the top
 From a stormy horizon we get
 our course
 The cry of freedom

 Riff 5 x2
 Face in the wind , we're riding
 the storm
 We'll stay our course whatever
 will come
 Wandering souls in the sea of
 the damned
 Death or glory, oh, oh we're riding
 the storm

 Riff 1 x2
 Riff 6 x2
 Riff 7a x4
 Riff 7b x2
 Riff 3 x2
 Riff 4a x2
 Riff 4b x1
 Riff 4c x1
 Breaking the waves, a ride on the wild
 raging sea
 Playing with fortune, oh, what a
 lust to be free
 Flashlights and thunder, the
 prattering rain on the hull
 From a stormy horizon we get our
 course
 The cry of freedom

 Riff 5 x2
 Face in the wind , we're riding
 the storm
 We'll stay our course whatever
 will come
 Wandering souls in the sea of
 the damned
 Death or glory, oh, oh we're riding
 the storm

 Riff 1 x2
 Riff 3 x2
 Riff 8 x1
Добавлено: 23.04.2012
Другие материалы по этой песне:

Страница создана 27.02.2012
http://primanota.ru/running-wild/riding-the-storm-chords.htm
Привет, Гость.
Предлагаем пройти революционный курс по гитаре.
Подарок от PrimaNota.Ru, забирай!