PrimaNota.ru - самый крупный в мире бесплатный архив песенных текстов, аккордов, табулатур и нот


Running Wild - Pirate Song - текст песни, таба, видео

Регистрация Запомнить меня
Войти через:  Facebook Google Twitter Vk Yandex Mail.ru

Running Wild - Pirate Song - текст песни, таба, видео

Печатать
Просмотров: 252
Running Wild - "Pirate Song"
From the album - "The Brotherhood"

Tabbed by Viktor Åsbrink, Sweden     Vicke_920@hotmail.com

This is a fairly easy but incredible song, i'd recommend it to anyone simply because of
melody bit.

The timing is a bit tricky to show on the tablature but listen to the song and i'm sure
get it.

Standard Tuning

 Melody:
|---4---2---0---2---0-------0-|---0h2h4---5---4---2---------------2---4---2-|
|-----------------------4-----|-----------------------5---2---5-------------|
|-----------------------------|---------------------------------------------|
|-----------------------------|---------------------------------------------|
|-----------------------------|---------------------------------------------|
|-----------------------------|---------------------------------------------|

|---4---2---0---2---0-------0-|---0h2--7---5---4---2---0------0---2---4---2-|
|-----------------------4-----|----------------------------2----------------|
|-----------------------------|---------------------------------------------|
|-----------------------------|---------------------------------------------|
|-----------------------------|---------------------------------------------|
|-----------------------------|---------------------------------------------|


Guitar 2 with the melody:

|-------------------|-------------------|
|-------------------|-------------------|
|-------------------|-------------------|
|---6---4---9---9---|---9---6---9---4---|
|---4---2---77777---|---7---4---7---2---|
|-------------------|-------------------|


Verse:
|-----------------------------------------------|
|-----------------------------------------------|
|-----------------------------------------------|
|---6-----6-----6-----6-4-9-----9-----4-----4---|
|---4-4-4-4-4-4-4-4-4-4-2-7-7-7-7-7-7-2-2-2-2---|
|-----------------------------------------------|

Pre-Chorus:
|---------------------|---------------------|
|---------------------|---------------------|
|---------------------|---------------------|
|---2---4---9-4-6-4---|---2---4---6---9-4---|
|---0---2---7-2-4-2---|---0---2---4---7-2---|
|---------------------|---------------------|

Chorus:
|---------------------|-------------------|
|---------------------|-------------------|
|---------------------|-------------------|
|---6-9-4-6-6-9-4-2---|---6-9-4-6-9-4-6---|
|---4-7-2-4-4-7-2-0---|---4-7-2-4-7-2-4---|
|---------------------|-------------------|


I haven't figured out how to play the solo... i'm still a pretty new guitarist, anyway
can play this if you can't find the solo elsewhere

Solo Part:
|--------------------------------------------|
|--------------------------------------------|
|--------------------------------------------|
|---9-----9-----9-9-11-13--6-----6-----6-4---|
|---7-7-7-7-7-7-7-7-9--11--4-4-4-4-4-4-4-2---|
|--------------------------------------------|

Melody - 2x
Verse  - 4x
Melody - 1x
Verse  - 2x
PC     - 2x
Chorus - 1x
Verse  - 2x
PC     - 1x
Solo   - 4x
Chorus - 1x
Verse  - 2x
PC     - 1x
Chorus - 2x

Good luck learning!
Добавлено: 08.04.2012
Другие материалы по этой песне:

Страница создана 22.02.2012
http://primanota.ru/running-wild/pirate-song-chords.htm
Привет, Гость.
Предлагаем пройти революционный курс по гитаре.
Подарок от PrimaNota.Ru, забирай!