PrimaNota.ru - самый крупный в мире бесплатный архив песенных текстов, аккордов, табулатур и нот


Rotting Christ - Konx Om Pax - таба, видео

Регистрация Запомнить меня
Войти через:  Facebook Google Twitter Vk Yandex Mail.ru

Rotting Christ - Konx Om Pax - таба, видео

Печатать
Просмотров: 75
Новый альбом группы 'Черный Кузнец' по культовому сериалу 'Сверхъестественное'!
=========================================================

Song:   Konx om Pax
                    
Artist: Rotting Christ

Album:  Rituals

=========================================================

Tabbed by: John Moores  

Tuning: B Standard (BEADF#B)

Legend
***********************************
| *   Palm Mute
***********************************


[Intro]
 B|-----------------------------------------------------------------------------|
F#|-----------------------------------------------------------------------------|
 D|-----------------------------------------------------------------------------|
 A|-----------------------------------------------------------------------------|  x4
 E|---------------------------------------3-------2-------4------3----4---4-----|
 B|--0--------1--------5---------4----------------------------------------2-----|

[Bridge]
 B|--------------------------------------------------|
F#|--------------------------------------------------|
 D|--------------------------------------------------|
 A|------------------------------------------3-------|  x8
 E|---2------------2---------------2--2--2---1-------|
 B|---0------0-0-0-0---------------0--0--0-----------|


[Verse]
GTR1
 B|--------------------------------------------------------------------------------------------------|
F#|--------------------------------------------------------------------------------------------------|
 D|--------------------------------------------------------------------------------------------------|
 A|--------------------------------------------------------------------------------------------------| x2
 E|-2------------------------------------------------------------------------------------------------|
 B|-0------------------------------------------------------------------------------------------------|
    *  

GTR2  (in triplets)
 B|--------------------------------------------------------------------------------------------------|
F#|--------------------------------------------------------------------------------------------------|
 D|--------------------------------------------------------------------------------------------------|
 A|--------------------------------------------------------------------------------------------------| x2
 E|-7-7-7-7-7-7-7-7-7-7-7-7-7-7-7-7-7-7-7-7-7-7-7-7-7-7-7-7-7-7-7-7-7-7-7-7-7-7-7-7-7-7-7-7-7-7-7-5--|
 B|--------------------------------------------------------------------------------------------------|
    * * * * * * * * * * * * * * * * * * * * * * * * * * * * * * * * * * * * * * * * * * * * * * *

GTR1
 B|--------------------------------------------------------------------------------------------------|
F#|--------------------------------------------------------------------------------------------------|
 D|--------------------------------------------------------------------------------------------------|
 A|-----------------------------------------------------------------------------------------------7--| x5
 E|-2-----------------------2-----------------------2-----------------------2---------------------5--|
 B|-0-----------------------0-----------------------0-----------------------0------------------------|
    *                       *                       *                       *                           

GTR2  (in triplets)
 B|--------------------------------------------------------------------------------------------------|
F#|--------------------------------------------------------------------------------------------------|
 D|--------------------------------------------------------------------------------------------------|
 A|--------------------------------------------------------------------------------------------------| x5
 E|-7-7-7-7-7-7-7-7-7-7-7-7-7-7-7-7-7-7-7-7-7-7-7-7-7-7-7-7-7-7-7-7-7-7-7-7-7-7-7-7-7-7-7-7-7-7-7-5--|
 B|--------------------------------------------------------------------------------------------------|
    * * * * * * * * * * * * * * * * * * * * * * * * * * * * * * * * * * * * * * * * * * * * * * *


[Chorus]
 B|-----------------------------------------------------------------------------|
F#|-----------------------------------------------------------------------------|
 D|-----------------------------------------------------------------------------|
 A|-----------------------------------------------------------------------------| x4
 E|--2---------------------------------5-----------------8----------------------|
 B|--0---------------------------------3-----------------6----------------------|


[Verse]

GTR1
 B|--------------------------------------------------------------------------------------------------|
F#|--------------------------------------------------------------------------------------------------|
 D|--------------------------------------------------------------------------------------------------|
 A|-----------------------------------------------------------------------------------------------7--| x4
 E|-2-----------------------2-----------------------2-----------------------2---------------------5--|
 B|-0-----------------------0-----------------------0-----------------------0------------------------|
    *                       *                       *                       *                           

GTR2  (in triplets)
 B|--------------------------------------------------------------------------------------------------|
F#|--------------------------------------------------------------------------------------------------|
 D|--------------------------------------------------------------------------------------------------|
 A|--------------------------------------------------------------------------------------------------| x4
 E|-7-7-7-7-7-7-7-7-7-7-7-7-7-7-7-7-7-7-7-7-7-7-7-7-7-7-7-7-7-7-7-7-7-7-7-7-7-7-7-7-7-7-7-7-7-7-7-5--|
 B|--------------------------------------------------------------------------------------------------|
    * * * * * * * * * * * * * * * * * * * * * * * * * * * * * * * * * * * * * * * * * * * * * * *

[Chorus]
 B|-----------------------------------------------------------------------------|
F#|-----------------------------------------------------------------------------|
 D|-----------------------------------------------------------------------------|
 A|-----------------------------------------------------------------------------| x8
 E|--2---------------------------------5-----------------8----------------------|
 B|--0---------------------------------3-----------------6----------------------|


[Bridge]

GTR1
 B|-----------------------------------------------------------------------------|
F#|-----------------------------------------------------------------------------|
 D|-----------------------------------------------------------------------------|
 A|----------7h9-9-------------------7-7--------------10-10---------------------| x3
 E|--7-7-7-7--------------------------------------------------------------------|
 B|-----------------------------------------------------------------------------|

GTR2
 B|-----------------------------------------------------------------------------|
F#|-----------------------------------------------------------------------------|
 D|-----------------------------------------------------------------------------|
 A|-----------------------------------------------------------------------------| x3
 E|--2---------------------------------5-----------------8----------------------|
 B|--0---------------------------------3-----------------6----------------------|


GTR1
 B|-----------------------------------------------------------------------------|
F#|-----------------------------------------------------------------------------|
 D|-----------------------------------------------------------------------------|
 A|-----------------------------------------------------------------------------|
 E|--7-7-7-7--------7-7-7-7------------7-7-7-7-7-7-7-7-7-7-7-7-5----------------|
 B|-----------------------------------------------------------------------------|

GTR2
 B|-----------------------------------------------------------------------------|
F#|-----------------------------------------------------------------------------|
 D|-----------------------------------------------------------------------------|
 A|-----------------------------------------------------------------------------|
 E|--2--------------2-2-2-2------------2-2-2-2-2-2-2-2-2-2-2-2-2----------------|
 B|--0--------------0-0-0-0------------0-0-0-0-0-0-0-0-0-0-0-0-0----------------|


GTR1
 B|-----------------------------------------------------------------------------|
F#|-----------------------------------------------------------------------------|
 D|-----------------------------------------------------------------------------|
 A|----------7h9-9-------------------7-7--------------10-10---------------------| x3
 E|--7-7-7-7--------------------------------------------------------------------|
 B|-----------------------------------------------------------------------------|

GTR2
 B|-----------------------------------------------------------------------------|
F#|----------10h12-12----------------10-10------------13-13---------------------|
 D|--9-9-9-9--------------------------------------------------------------------|
 A|-----------------------------------------------------------------------------| x3
 E|-----------------------------------------------------------------------------|
 B|-----------------------------------------------------------------------------|

GTR3
 B|-----------------------------------------------------------------------------|
F#|-----------------------------------------------------------------------------|
 D|-----------------------------------------------------------------------------|
 A|-----------------------------------------------------------------------------| x3
 E|--2---------------------------------5-----------------8----------------------|
 B|--0---------------------------------3-----------------6----------------------|


GTR1
 B|-----------------------------------------------------------------------------|
F#|-----------------------------------------------------------------------------|
 D|-----------------------------------------------------------------------------|
 A|-----------------------------------------------------------------------------|
 E|--7-7-7-7--------7-7-7-7------------7-7-7-7-7-7-7-7-7-7-7-7-5----------------|
 B|-----------------------------------------------------------------------------|

GTR2
 B|-----------------------------------------------------------------------------|
F#|-----------------------------------------------------------------------------|
 D|--9-9-9-9--------9-9-9-9------------9-9-9-9-9-9-9-9-9-9-9-9-7----------------|
 A|-----------------------------------------------------------------------------|
 E|-----------------------------------------------------------------------------|
 B|-----------------------------------------------------------------------------|

GTR3
 B|-----------------------------------------------------------------------------|
F#|-----------------------------------------------------------------------------|
 D|-----------------------------------------------------------------------------|
 A|-----------------------------------------------------------------------------|
 E|--2--------------2-2-2-2------------2-2-2-2-2-2-2-2-2-2-2-2-2----------------|
 B|--0--------------0-0-0-0------------0-0-0-0-0-0-0-0-0-0-0-0-0----------------|


[Bridge]

GTR1
 B|-----------------------------------------------------------------------------|
F#|-----------------------------------------------------------------------------|
 D|-----------------------------------------------------------------------------|
 A|----------7h9-9-------------------7-7--------------10-10---------------------| x3
 E|--7-7-7-7--------------------------------------------------------------------|
 B|-----------------------------------------------------------------------------|

GTR2
 B|-----------------------------------------------------------------------------|
F#|----------10h12-12----------------10-10------------13-13---------------------|
 D|--9-9-9-9--------------------------------------------------------------------|
 A|-----------------------------------------------------------------------------| x3
 E|-----------------------------------------------------------------------------|
 B|-----------------------------------------------------------------------------|


GTR1
 B|-----------------------------------------------------------------------------|
F#|-----------------------------------------------------------------------------|
 D|-----------------------------------------------------------------------------|
 A|-----------------------------------------------------------------------------|
 E|--7-7-7-7--------7-7-7-7------------7-7-7-7-7-7-7-7-7-7-7-7-5----------------|
 B|-----------------------------------------------------------------------------|

GTR2
 B|-----------------------------------------------------------------------------|
F#|-----------------------------------------------------------------------------|
 D|--9-9-9-9--------9-9-9-9------------9-9-9-9-9-9-9-9-9-9-9-9-7----------------|
 A|-----------------------------------------------------------------------------|
 E|-----------------------------------------------------------------------------|
 B|-----------------------------------------------------------------------------|

GTR1
 B|-----------------------------------------------------------------------------|
F#|-----------------------------------------------------------------------------|
 D|-----------------------------------------------------------------------------|
 A|----------7h9-9-------------------7-7--------------10-10---------------------| x3
 E|--7-7-7-7--------------------------------------------------------------------|
 B|-----------------------------------------------------------------------------|

GTR2
 B|-----------------------------------------------------------------------------|
F#|----------10h12-12----------------10-10------------13-13---------------------|
 D|--9-9-9-9--------------------------------------------------------------------|
 A|-----------------------------------------------------------------------------| x3
 E|-----------------------------------------------------------------------------|
 B|-----------------------------------------------------------------------------|


GTR1
 B|-----------------------------------------------------------------------------|
F#|-----------------------------------------------------------------------------|
 D|-----------------------------------------------------------------------------|
 A|-----------------------------------------------------------------------------|
 E|--7-7-7-7--------7-7-7-7------------7-7-7-7-7-7-7-7-7-7-7-7-5----------------|
 B|-----------------------------------------------------------------------------|

GTR2
 B|-----------------------------------------------------------------------------|
F#|-----------------------------------------------------------------------------|
 D|--9-9-9-9--------9-9-9-9------------9-9-9-9-9-9-9-9-9-9-9-9-7----------------|
 A|-----------------------------------------------------------------------------|
 E|-----------------------------------------------------------------------------|
 B|-----------------------------------------------------------------------------|


[Chorus]

GTR1
 B|-----------------------------------------------------------------------------|
F#|-----------------------------------------------------------------------------|
 D|-----------------------------------------------------------------------------|
 A|----------7h9-9-------------------7-7--------------10-10---------------------| x3
 E|--7-7-7-7--------------------------------------------------------------------|
 B|-----------------------------------------------------------------------------|

GTR2
 B|-----------------------------------------------------------------------------|
F#|----------10h12-12----------------10-10------------13-13---------------------|
 D|--9-9-9-9--------------------------------------------------------------------|
 A|-----------------------------------------------------------------------------| x3
 E|-----------------------------------------------------------------------------|
 B|-----------------------------------------------------------------------------|

GTR3
 B|-----------------------------------------------------------------------------|
F#|-----------------------------------------------------------------------------|
 D|-----------------------------------------------------------------------------|
 A|-----------------------------------------------------------------------------| x3
 E|--2---------------------------------5-----------------8----------------------|
 B|--0---------------------------------3-----------------6----------------------|


GTR1
 B|-----------------------------------------------------------------------------|
F#|-----------------------------------------------------------------------------|
 D|-----------------------------------------------------------------------------|
 A|-----------------------------------------------------------------------------|
 E|--7-7-7-7--------7-7-7-7------------7-7-7-7-7-7-7-7-7-7-7-7-5----------------|
 B|-----------------------------------------------------------------------------|

GTR2
 B|-----------------------------------------------------------------------------|
F#|-----------------------------------------------------------------------------|
 D|--9-9-9-9--------9-9-9-9------------9-9-9-9-9-9-9-9-9-9-9-9-7----------------|
 A|-----------------------------------------------------------------------------|
 E|-----------------------------------------------------------------------------|
 B|-----------------------------------------------------------------------------|

GTR3
 B|-----------------------------------------------------------------------------|
F#|-----------------------------------------------------------------------------|
 D|-----------------------------------------------------------------------------|
 A|-----------------------------------------------------------------------------|
 E|--2--------------2-2-2-2------------2-2-2-2-2-2-2-2-2-2-2-2-2----------------|
 B|--0--------------0-0-0-0------------0-0-0-0-0-0-0-0-0-0-0-0-0----------------|



GTR1
 B|-----------------------------------------------------------------------------|
F#|-----------------------------------------------------------------------------|
 D|-----------------------------------------------------------------------------|
 A|----------7h9-9-------------------7-7--------------10-10---------------------| x3
 E|--7-7-7-7--------------------------------------------------------------------|
 B|-----------------------------------------------------------------------------|

GTR2
 B|-----------------------------------------------------------------------------|
F#|----------10h12-12----------------10-10------------13-13---------------------|
 D|--9-9-9-9--------------------------------------------------------------------|
 A|-----------------------------------------------------------------------------| x3
 E|-----------------------------------------------------------------------------|
 B|-----------------------------------------------------------------------------|

GTR3
 B|-----------------------------------------------------------------------------|
F#|-----------------------------------------------------------------------------|
 D|-----------------------------------------------------------------------------|
 A|-----------------------------------------------------------------------------| x3
 E|--2---------------------------------5-----------------8----------------------|
 B|--0---------------------------------3-----------------6----------------------|


GTR1
 B|-----------------------------------------------------------------------------|
F#|-----------------------------------------------------------------------------|
 D|-----------------------------------------------------------------------------|
 A|-----------------------------------------------------------------------------|
 E|--7-7-7-7--------7-7-7-7------------7-7-7-7-7-7-7-7-7-7-7-7-5----------------|
 B|-----------------------------------------------------------------------------|

GTR2
 B|-----------------------------------------------------------------------------|
F#|-----------------------------------------------------------------------------|
 D|--9-9-9-9--------9-9-9-9------------9-9-9-9-9-9-9-9-9-9-9-9-7----------------|
 A|-----------------------------------------------------------------------------|
 E|-----------------------------------------------------------------------------|
 B|-----------------------------------------------------------------------------|

GTR3
 B|-----------------------------------------------------------------------------|
F#|-----------------------------------------------------------------------------|
 D|-----------------------------------------------------------------------------|
 A|-----------------------------------------------------------------------------|
 E|--2--------------2-2-2-2------------2-2-2-2-2-2-2-2-2-2-2-2-2----------------|
 B|--0--------------0-0-0-0------------0-0-0-0-0-0-0-0-0-0-0-0-0----------------|


[Outro]

GTR1
 B|---------------------------------------------------------------------------------------------------|
F#|---------------------------------------------------------------------------------------------------|
 D|---------------------------------------------------------------------------------------------------|
 A|-----------------------------------------------------------------------------------------------7-9-|
 E|-2-----------------------2-----------------------2-----------------------2---------------------5-7-|
 B|-0-----------------------0-----------------------0-----------------------0-------------------------|
    *                       *                       *                       *                           

GTR2  (in triplets)
 B|---------------------------------------------------------------------------------------------------|
F#|---------------------------------------------------------------------------------------------------|
 D|---------------------------------------------------------------------------------------------------|
 A|-------------------------------------------------------------------------------------------------9-|
 E|-7-7-7-7-7-7-7-7-7-7-7-7-7-7-7-7-7-7-7-7-7-7-7-7-7-7-7-7-7-7-7-7-7-7-7-7-7-7-7-7-7-7-7-7-7-7-7-5-7-|
 B|---------------------------------------------------------------------------------------------------|
    * * * * * * * * * * * * * * * * * * * * * * * * * * * * * * * * * * * * * * * * * * * * * * *
Добавлено: 14.12.2017
Другие материалы по этой песне:
  • Аккорды и текст

Страница создана 14.12.2017
http://primanota.ru/rotting-christ/konx-om-pax-chords.htm
Привет, Гость.
Предлагаем пройти революционный курс по гитаре.
Подарок от PrimaNota.Ru, забирай!