PrimaNota.ru - самый крупный в мире бесплатный архив песенных текстов, аккордов, табулатур и нот


Roo Panes - Tiger Striped Sky - таба, видео

Регистрация Запомнить меня
Войти через:  Facebook Google Twitter Vk Yandex Mail.ru

Roo Panes - Tiger Striped Sky - таба, видео

Печатать
Просмотров: 104
-------------------------------------------------------------------------------
                             TIGER STRIPED SKY - Roo Panes
-------------------------------------------------------------------------------
Tabbed by: wildBILL010

*It's not perfect, but it is still excellent!

Tuning: DADGBe

Intro/Verse
e|------------------------------------------------------|
B|------------------------------------------------------|
G|------------------------------------------------------|
D|-------3---3----2----2----0---0-----------------------|
A|---3-------------------------------3----3-------------|
D|-3---3---3---3----3-----3---3---3----3----3-----------| x1

e|--------------------------------------------------------------|
B|--------------------------------------------------------------|
G|--------------------------------------------------------------|
D|--------7----3-----5------------3-----------------------------|
A|---3----------------------7------------5------3-----3-----3---|
D|-3---3----3-----3-----3------3-----3------3------3-----3------| x2

e|-------------------------------------------------------------|
B|-------------------------------------------------------------|
G|-------------------------------------------------------------|
D|-------------------------------------------------------------|
A|----8---8----7---7---5---5---3---3---3---3---3---3---3---3---|
D|--8---8----7---7---5---5---3---3---3---3---3---3---3---3-----| x1

Chorus
(These are just the chords, it's easy to hear how the strumming goes in the song)

e|-------------------|
B|-------------------|
G|-12----10----5-----|
D|-10----8-----3-----|
A|-10----8-----3-----|
D|-10----8-----3-----|



************************************

| /   slide up
| \   slide down
| h   hammer-on
| p   pull-off
| ~   vibrato
| +   harmonic
| x   Mute note
| b   Bend
| pb  Pre-bend
| br  Bend release
| pbr Pre-bend release
| brb Bend release bend

************************************
Добавлено: 09.05.2016
Другие материалы по этой песне:
  • Аккорды и текст

Страница создана 09.05.2016
http://primanota.ru/roo-panes/tiger-striped-sky-chords.htm
Привет, Гость.
Предлагаем пройти революционный курс по гитаре.
Подарок от PrimaNota.Ru, забирай!