PrimaNota.ru - самый крупный в мире бесплатный архив песенных текстов, аккордов, табулатур и нот


Rod Stewart - The Day Will Come - текст песни, бас-таба, видео

Регистрация Запомнить меня
Войти через:  Facebook Google Twitter Vk Yandex Mail.ru

Rod Stewart - The Day Will Come - текст песни, бас-таба, видео

Печатать
Просмотров: 124
The Day Will Come
Rod Stewart
Written by Barry Mason; released as a single with "Why Does It Go On"
as the B-side.

Intro:
G|------- ------- ------- -------|------- ------- ------- -------|
D|-------------------------------|-------------------------------|
A|7-----------7---7--------------|5-----------5---5--------------|
E|-------------------------------|-------------------------------|



G|------- ------- ------- -------|------- ------- ------- -------|
D|-------------------------------|-------------------------------|
A|7-----------7---7--------------|7-----------7---7--------------|
E|-------------------------------|-------------------------------|



G|------- ------- ------- -------|------- ------- ------- -------|
D|-------------------------------|-------------------------------|
A|7------------------------------|-------------------------------|
E|0------------------------------|-------------------------------|
                                                              The

Verse:
G|------- ------- ------- -------|------- ------- ------- -------|
D|-------------------------------|-------------------------------|
A|7-----------7---7--------------|-------------------------------|
E|-------------------------------|5-----------5---5--------------|
  day will    come           when out     of      empty       space


G|------- ------- ------- -------|------- ------- ------- -------|
D|-------------------------------|-------------------------------|
A|-------------------------------|-------------------------------|
E|7-----------7---7--------------|7-----------7---7--------------|
                                                              A


G|------- ------- ------- -------|------- ------- ------- -------|
D|-------------------------------|-------------------------------|
A|7-----------7---7--------------|-------------------------------|
E|-------------------------------|5-----------5---5--------------|
  flash of    fire           will light   the     children's  face.


G|------- ------- ------- -------|------- ------- ------- -------|
D|-------------------------------|-------------------------------|
A|-------------------------------|-------------------------------|
E|7-----------7---7--------------|7-----------7---7--------------|



G|------- ------- ------- -------|------- ------- ------- -------|
D|-------------------------------|-------------------------------|
A|7-----------7---7--------------|-------------------------------|
E|-------------------------------|5-----------5---5--------------|
  Hopeless -  ly              their   last    tears they will cry,


G|------- ------- ------- -------|------- ------- ------- -------|
D|-------------------------------|-------------------------------|
A|7------------------------------|-------------------------------|
E|------------7---7--------------|7-----------7---7--------------|



G|------- ------- ------- -------|------- ------- ------- -------|
D|-------------------------------|-------------------------------|
A|7-----------7---7--------------|-------------------------------|
E|-------------------------------|5-----------5---5--------------|
  Be  too     late            to  ask     our     leaders     why.


G|------- ------- ------- -------|------- ------- ------- -------|
D|-------------------------------|-------------------------------|
A|-------------------------------|-------------------------------|
E|7-----------7---7--------------|7-----------7---7--------------|
                                                              The

Refrain:
G|------- ------- ------- -------|------- ------- ------- -------|
D|-------------------------------|-------------------------------|
A|7-----------7---7--------------|-------------------------------|
E|-------------------------------|5-----------5---5--------------|
  day will    come,                   a   day of  sorrow,


G|------- ------- ------- -------|------- ------- ------- -------|
D|-------------------------------|-------------------------------|
A|7-----------7---7--------------|-------------------------------|
E|-------------------------------|5-----------5---5--------------|
          Then we'll see  them    strol - lin'    out     to- mor-


G|------- ------- ------- -------|------- ------- ------- -------|
D|-------------------------------|-------------------------------|
A|7-----------7---7--------------|5-----------5---5--------------|
E|-------------------------------|-------------------------------|
          row.                                                The

Verse:
G|------- ------- ------- -------|------- ------- ------- -------|
D|-------------------------------|-------------------------------|
A|7-----------7---7--------------|-------------------------------|
E|-------------------------------|5-----------5---5--------------|
  song of     life           that once    we      knew so     well


G|------- ------- ------- -------|------- ------- ------- -------|
D|-------------------------------|-------------------------------|
A|-------------------------------|-------------------------------|
E|7-----------7---7--------------|7-----------7---7--------------|
                                                              Will


G|------- ------- ------- -------|------- ------- ------- -------|
D|-------------------------------|-------------------------------|
A|7-----------7---7--------------|-------------------------------|
E|-------------------------------|5-----------5---5--------------|
  not be      heard           as  we're   led     in- to      hell.


G|------- ------- ------- -------|------- ------- ------- -------|
D|-------------------------------|-------------------------------|
A|-------------------------------|-------------------------------|
E|7-----------7---7--------------|7-----------7---7---7----------|



G|------- ------- ------- -------|------- ------- ------- -------|
D|-------------------------------|-------------------------------|
A|7-----------7---7--------------|-------------------------------|
E|-------------------------------|5-----------5---5--------------|
  Death is    close,         yes, I       can     see the     sign,


G|------- ------- ------- -------|------- ------- ------- -------|
D|-------------------------------|-------------------------------|
A|7------------------------------|-------------------------------|
E|------------7---7--------------|7-----------7---7--------------|



G|------- ------- ------- -------|------- ------- ------- -------|
D|-------------------------------|-------------------------------|
A|7-----------7---7--------------|-------------------------------|
E|-------------------------------|5-----------5---5--------------|
  Down your   street              blood   will    flow like   wine.


G|------- ------- ------- -------|------- ------- ------- -------|
D|-------------------------------|-------------------------------|
A|-------------------------------|-------------------------------|
E|7-----------7---7--------------|7-----------7---7--------------|
                                                              The

Refrain:
G|------- ------- ------- -------|------- ------- ------- -------|
D|-------------------------------|-------------------------------|
A|7-----------7---7--------------|-------------------------------|
E|-------------------------------|5-----------5---5--------------|
  day will    come,                   a   day of  sorrow,


G|------- ------- ------- -------|------- ------- ------- -------|
D|-------------------------------|-------------------------------|
A|7-----------7---7--------------|-------------------------------|
E|-------------------------------|5-----------5---5--------------|
          Then we'll see  them    strol - lin'    out     to- mor-


G|------- ------- ------- -------|------- ------- ------- -------|
D|-------------------------------|-------------------------------|
A|7-----------7---7--------------|5-----------5---5--------------|
E|-------------------------------|-------------------------------|
          row.                                                The

Verse:
G|------- ------- ------- -------|------- ------- ------- -------|
D|-------------------------------|-------------------------------|
A|7-----------7---7--------------|-------------------------------|
E|-------------------------------|5-----------5---5--------------|
  day will    come            and swal -  low     up  the     Sun,


G|------- ------- ------- -------|------- ------- ------- -------|
D|-------------------------------|-------------------------------|
A|-------------------------------|-------------------------------|
E|7-----------7---7--------------|7-----------7---7---7----------|



G|------- ------- ------- -------|------- ------- ------- -------|
D|-------------------------------|-------------------------------|
A|7-----------7---7--------------|-------------------------------|
E|-------------------------------|5-----------5---5--------------|
  Can't es -  cape,         we've got     no  -   where to    run.


G|------- ------- ------- -------|------- ------- ------- -------|
D|-------------------------------|-------------------------------|
A|-------------------------------|-------------------------------|
E|7-----------7---7--------------|7-----------7---7---7----------|
                                                              The


G|------- ------- ------- -------|------- ------- ------- -------|
D|-------------------------------|-------------------------------|
A|7-----------7---7--------------|-------------------------------|
E|-------------------------------|5-----------5---5--------------|
  generals        must    be  found,      some    work    to  do,


G|------- ------- ------- -------|------- ------- ------- -------|
D|-------------------------------|-------------------------------|
A|7------------------------------|-------------------------------|
E|------------7---7--------------|7-----------7---7---7----------|
                                                              And


G|------- ------- ------- -------|------- ------- ------- -------|
D|-------------------------------|-------------------------------|
A|7-----------7---7--------------|-------------------------------|
E|-------------------------------|5-----------5---5--------------|
  me- dals        must    be  bought  by          me  and you,


G|------- ------- ------- -------|------- ------- ------- -------|
D|-------------------------------|-------------------------------|
A|-------------------------------|-------------------------------|
E|7-----------7---7--------------|7-----------7---7--------------|
              yeah.                                           The

Refrain:
G|------- ------- ------- -------|------- ------- ------- -------|
D|-------------------------------|-------------------------------|
A|7-----------7---7--------------|-------------------------------|
E|-------------------------------|5-----------5---5---5----------|
  day will    come,                   a   day of  sorrow,


G|------- ------- ------- -------|------- ------- ------- -------|
D|-------------------------------|-------------------------------|
A|7-----------7---7--------------|-------------------------------|
E|-------------------------------|5-----------5---5-------7------|
          Then we'll see  them    strol - lin'    out     to- mor-


G|------- ------- ------- -------|------- ------- ------- -------|
D|-------------------------------|-------------------------------|
A|7-----------7---7--------------|5-----------5---5--------------|
E|-------------------------------|-------------------------------|
          row.                                The day will    come,

Outro:
G|------- ------- ------- -------|------- ------- ------- -------|
D|-------------------------------|-------------------------------|
A|7-----------7---7--------------|5-----------5---5--------------|
E|-------------------------------|-------------------------------|
                                              The day will    come...
Repeat and fade out...

Please e-mail me for any corrections, or write a comment.
Добавлено: 02.06.2015
Другие материалы по этой песне:
  • Аккорды и текст

Страница создана 20.06.2012
http://primanota.ru/rod-stewart/the-day-will-come-chords.htm
Привет, Гость.
Предлагаем пройти революционный курс по гитаре.
Подарок от PrimaNota.Ru, забирай!