PrimaNota.ru - самый крупный в мире бесплатный архив песенных текстов, аккордов, табулатур и нот


Шуман Роберт - Little Studie Op 68 14 - таба, видео

Регистрация Запомнить меня
Войти через:  Facebook Google Twitter Vk Yandex Mail.ru

Шуман Роберт - Little Studie Op 68 14 - таба, видео

Печатать
Просмотров: 36
As recorded by Robert Schumann

Music by Robert Schumann (1810 - 1856)
Transcribed by Simon Mathias

Gtr I (D A D G B E) - 'Dropped-D'

  Q=120
 6/8
  Gtr I
  E E E E E E   E E E E E E   E E E E E E   E E E E E E   E E E E E E
|-------------|-------------|-------0-----|-------------|-------3-----|
|-------0-----|-------1-----|---------1---|-------3-0---|---------3-0-|
|---------0---|---------0---|-----------2-|-----0-----0-|-----0-------|
|-----0-----0-|-----2-----2-|-----4-------|-------------|-------------|
|---2---------|---3---------|---3---------|---2---------|---2---------|
|-5-----------|-5-----------|-5-----------|-5-----------|-5-----------|


  E E E E E E   E E E E E E   E E E E E E   E E E E E E   E E E E E E
|-------------|-------0-----|-------------|-------------|--------------|
|-------4-0---|---------1---|-------1-----|-------------|--------------|
|-----0-----0-|-----0-----0-|---------0---|-------2-----|-------2------|
|---1---------|---2---------|-----2-----2-|-----2---2---|-----2---2----|
|-2-----------|-3-----------|-2-3---------|-0-3-------3-|---3-------3--|
|-------------|-------------|-------------|-------------|-5------------|


  E E E E E E   E E E E E E   E E E E E E   E E E E E E   E E E E E E
|-------------|-------------|-------------|-------------|--------------|
|-------1-----|-------0-----|-------------|-------------|--------------|
|---------2---|-------------|-------2-----|-------------|-------2------|
|-----0-----0-|-----0---3-0-|-----2---2---|-------2-----|---------0----|
|---0---------|---2---------|-0-3-------3-|-3---0---0---|-----0-----3--|
|-4-----------|-6-----------|-------------|---5-------5-|-0-4----------|


  E E E E E E   E E E E E E   E E E E E E   E E E E E E   E E E E E E
|-------------|-------------|-------------|-------0-----|--------------|
|-------------|-------0-----|-------1-----|---------1---|-------3-0----|
|-----------3-|---------0---|---------0---|-----------2-|-----0-----0--|
|-------0-4---|-----0-----0-|-----2-----2-|-----4-------|--------------|
|-----1-------|---2---------|---3---------|---3---------|---2----------|
|-0-4---------|-5-----------|-5-----------|-5-----------|-5------------|


  E E E E E E   E E E E E E   E E E E E E   E E E E E E   E E E E E E
|-------3-----|-------------|-------0-----|-------------|--------------|
|---------3-0-|-------4-0---|---------1---|-------1-----|--------------|
|-----0-------|-----0-----0-|-----0-----0-|---------0---|-------2------|
|-------------|---1---------|---2---------|-----2-----2-|-----2---2----|
|---2---------|-2-----------|-3-----------|-2-3---------|-0-3-------3--|
|-5-----------|-------------|-------------|-------------|--------------|


  E E E E E E   E E E E E E   E E E E E E   E E E E E E   E E E E E E
|-------------|-------------|-------------|-------------|--------------|
|-------------|-------1-----|-------0-----|-------------|--------------|
|-------2-----|---------2---|-------------|-------2-----|--------------|
|-----2---2---|-----0-----0-|-----0---3-0-|-----2---2---|-------2------|
|---3-------3-|---0---------|---2---------|-2-3-------3-|-3---0---0----|
|-5-----------|-4-----------|-6-----------|-------------|---5-------5--|


  E E E E E E   E E E E E E     E E E E E E   E E E E E E   E E E E E E
|-------------|-------------||--------------|-------------|--------------|
|-------------|-------------||o-------------|-------------|--------------|
|-------2-----|-------2-----||--------2-----|-------0-----|--------------|
|---------0---|---------0---||----------0---|---------0---|-------4-0----|
|-----0-----3-|-----0-----3-||o-----3-----3-|-----3-----3-|---0-3-----3--|
|-0-5---------|-0-4---------||--0-4---------|-0-2---------|-0------------|


  E E E E E E   E E E E E E   E E E E E E   E E E E E E   E E E E E E
|-------------|-------------|-------------|-------------|--------------|
|-------------|-------1-----|-------------|-------------|-------0------|
|-------------|-------------|-------1-----|-------2-----|---------0----|
|-------2-----|---------0---|---------0---|---------0---|-----------3--|
|-----3---3---|-----3-----3-|-----2-----2-|-----3-----3-|-----2--------|
|-0-5-------5-|-0-4---------|-0-3---------|-0-4---------|-0-3----------|


  E E E E E E   E E E E E E   E E E E E E   E E E E E E   E E E E E E
|-------0-----|-------------|-------------|-------------|--------------|
|---------1---|-------------|-------3-0---|-------------|--------------|
|-----0-----0-|-------2-----|-----0-----0-|-------0-----|--------------|
|---2---------|---1-4---4-1-|---0---------|-----2---2---|-----0-4-0----|
|-3-----------|-3-----------|-2-----------|-1-4-------4-|-0-3-------3--|
|-------------|-------------|-------------|-------------|--------------|


  E E E E E E   E E E E E E   E E E E  E E   E E E E E E   E E E E E E
|-------------|-------------|--------------|-------------|--------------|
|-------------|-------------|--------------|-------0-----|-------1------|
|-------0-----|-------2-----|-0-----2------|---------0---|---------0----|
|-----0---0---|-----0---0---|---0------0---|-----0-----0-|-----2-----2--|
|---3-------3-|---3-------3-|-3---3------3-|---2---------|---3----------|
|-5-----------|-0-----------|-------0------|-5-----------|-5------------|
                              Q     Q.


  E E E E E E   E E E E E E   E E E E E E   E E E E E E   E E E E E E
|-------0-----|-------------|-------3-----|-------------|-------0------|
|---------1---|-------3-0---|---------3-0-|-------4-0---|---------1----|
|-----------2-|-----0-----0-|-----0-------|-----0-----0-|-----0-----0--|
|-----4-------|-------------|-------------|---1---------|---2----------|
|---3---------|---2---------|---2---------|-2-----------|-3------------|
|-5-----------|-5-----------|-5-----------|-------------|--------------|


  E E E E E E   E E E E E E   E E E E E E   E E E E E E   E E E E E E
|-------------|-------------|-------------|-------------|--------------|
|-------0-----|-------1-----|-------------|-------1-----|--------------|
|---------1---|---------2---|-------1-----|---------2---|-------1------|
|---0-2-----0-|-----2-----2-|---0-2---2-0-|-----2-----2-|---0-2---2-0--|
|-2-----------|-0-3---------|-2-----------|-0-3---------|-2------------|
|-------------|-------------|-------------|-------------|--------------|


  E E E E E E   E E E E E E   E E E E E E   E
|-------------|-------------|-------------|-------||
|-------------|-------0-----|-------------|------o||
|-------2-----|-------------|-------0-----|-------||
|---------0---|---------0---|-----0---0---|-------||
|-----3-----3-|-----3-----3-|---2-------2-|------o||
|-0-5---------|-0-4---------|-5-----------|-5-----||


Duration Legend
---------------
W - whole; H - half; Q - quarter; E - 8th; S - 16th; T - 32nd; X - 64th; a - acciaccatura
+ - note tied to previous; . - note dotted; .. - note double dotted
Uncapitalized letters represent notes that are staccato (1/2 duration)
Irregular groupings are notated above the duration line
Duration letters will always appear directly above the note/fret number it represents the
duration for.  Duration letters with no fret number below them represent rests.  Multi-
bar rests are notated in the form Wxn, where n is the number of bars to rest for.  Low
melody durations appear below the staff

Tablature Legend
----------------
 h   - hammer-on
 p   - pull-off
 b   - bend
 pb  - pre-bend
 r   - bend release (if no number after the r, then release immediately)
 /\  - slide into or out of (from/to "nowhere")
 s   - legato slide
 S   - shift slide
  - natural harmonic
[n]  - artificial harmonic
n(n) - tapped harmonic
 ~   - vibrato
 tr  - trill
 T   - tap
 TP  - trem. picking
 PM  - palm muting
\n/  - tremolo bar dip; n = amount to dip
 \n  - tremolo bar down
 n/  - tremolo bar up
/n\  - tremolo bar inverted dip
 =   - hold bend; also acts as connecting device for hammers/pulls
 <>  - volume swell (louder/softer)
 x   - on rhythm slash represents muted slash
 o   - on rhythm slash represents single note slash

Misc Legend
-----------
 |  - bar
||  - double bar
||o - repeat start
o|| - repeat end
*|  - double bar (ending)
 :  - bar (freetime)
 $  - Segno
 &  - Coda
Tempo markers -  = BPM(8/16=s8/s16), where s8 = swing 8ths, s16 = swing 16ths

Добавлено: 24.04.2016
Другие материалы по этой песне:
  • Аккорды и текст

Страница создана 24.04.2016
http://primanota.ru/robert-schumann/little-studie-op-68-14-chords.htm
Привет, Гость.
Предлагаем пройти революционный курс по гитаре.
Подарок от PrimaNota.Ru, забирай!