PrimaNota.ru - самый крупный в мире бесплатный архив песенных текстов, аккордов, табулатур и нот


Шуман Роберт - The Happy Farmer - таба, видео

Регистрация Запомнить меня
Войти через:  Facebook Google Twitter Vk Yandex Mail.ru

Шуман Роберт - The Happy Farmer - таба, видео

Печатать
Просмотров: 211
Уроки эстрадного вокала в Санкт-Петербурге
\---Song:-The-Happy-Farmer----------------\
 \---Composer:-Robert-Schumann------------\
  \---Transcription-by:Christian Liang----\
  /---E-Mail:christian.liang@gmail.com----\
 /---http://www.classclef.com-------------\
/---Enjoy!--------------------------------\

==========================================================================
             The Happy Farmer by Robert Schumann (1810 - 1856)
==========================================================================

Time Signature: 4/4
Key Signature: C Major


[1]
E|-----------------||--0-0-----0-0---|-----------0-0---|-----------------|
B|-----------------||--1-1-----1-1---|-----1-----1-1---|-----------------|
G|-----------------||*-0-0---0======-|---2---2-0======-|-----------------|
D|-----------------||*-----2---------|-3-------------2-|-3-0---3-2-----2-|
A|-----------------||3======-------3-|-----------------|-----------3-----|
E|---------------3-||----------------|-----------------|-----3-------3---|
   | | | | | | | |   | | | | | | | |   | | | | | | | | | | | | | | | | |
   |   |   |   |     |   |   |   |     |   |   |   |     |   |   |   |
L                3   3 1 1 2   1 1 3   3 2 1 2   1 1 2   4   3 4 2 4 3 2

[5]
E|---3---2---3-3--|||--1-1-----1-1---|-----------1-1---|---0-0-----0-0---|
B|---0---1---0-0--|||--0-0-----0-0---|-----------0-0---|---1-1-----1-1---|
G|---0---2---0-0-*|||*-0-0-----0-0---|-----------0-0---|---0-0---0======-|
D|---------------*|||0======---------|-0---------------|-------2---------|
A|-2---0----------|||------3-2======-|---3-2-0-2-------|-3-------------3-|
E|---------3-----3|||--------------3-|---------------3-|-----------------|
   | | | | | | | |   | | | | | | | |   | | | | | | | | | | | | | | | | |
   |   |   |   |     |   |   |   |     |   |   |   |     |   |   |   |
L  2 4   3 3 4 4 4     1 1 3 2 1 1 3     3 2   2 1 1 3   3 1 1 2   1 1 3
         1
         2
                                       _______________   _________________
[9]                                   |1.               |2.
E|-----------0-0---|-----------------|---1---1---0-0--||---1---1---0-0---|
B|-----1-----1-1---|-----------------|---3---0---1-1--||---3---0---1-1---|
G|---2---2-0======-|-----------------|---2---0---0-0-*||---2---0---0-0---|
D|-3-------------2-|-3-0---3-2-----2-|-0-------------*||-0---------------|
A|-----------------|-----------3-----|-----2---3------||-----2---3-------|
E|-----------------|-----3-------3---|---------------3||-----------------|
   | | | | | | | |   | | | | | | | |   | | | | | | | | | | | | | | | | |
   |   |   |   |     |   |   |   |     |   |   |   |     |   |   |   |
L  3 2 1 2   1 1 2   4   3 4 2 4 3 2     1 2 1 3 1 1 3     1 2 1 3 1 1
                                         4                 4
                                         2                 2

======
Legend
======

========= = suspend/hold Note
 ________
|1.       = ending 1
Добавлено: 27.02.2012
Другие материалы по этой песне:

Страница создана 22.02.2012
http://primanota.ru/robert-schumann/the-happy-farmer-chords.htm
Привет, Гость.
Предлагаем пройти революционный курс по гитаре.
Подарок от PrimaNota.Ru, забирай!