PrimaNota.ru - самый крупный в мире бесплатный архив песенных текстов, аккордов, табулатур и нот


Robert Plant - The Last Say Goodbye - таба, видео

Регистрация Запомнить меня
Войти через:  Facebook Google Twitter Vk Yandex Mail.ru

Robert Plant - The Last Say Goodbye - таба, видео

Печатать
Просмотров: 128
Part I

|----------------------------------------------3p2-----|
|--------------------3p0--------3p0----------3---------|
|-------0----------0----------------0------2-----------|  Play 4 times.
|-----2---2------2------------0----------0-------------|
|---2-------2--3------------2--------------------------|
|-0-----------------------3----------------------------|

0.28

Part II

|---------------------              --------3p2-----2-3----|
|--------3-------3p0--              ------3-----3----------|
|------0-------0------ Play 3 times ----2---------2--------|
|----2-------0--------              --0--------------------|
|--3-------2----------              -----------------------|
|---------------------              -----------------------|

1.19

|-------3p2-----2-3---------3p2-----2--------3-------2---------3-------3/5-|
|-----3-----3-------------3-----3----------3---3-------------3-------3-3/5-|
|---2---------2---------2---------2------2-------2---------2-------2-------|
|-0-------------------0----------------0-----------------0-------0---------|
|--------------------------------------------------------------------------|
|--------------------------------------------------------------------------|

1.33

|------------------------------------------------------|
|------------------------------------------------------|
|------------------------------------------------------|
|-3/5-5-5-7-5-5--9-10-9-5-7--3/5-5-5-7-5-5--12-10-9-7--|
|------------------------------------------------------|
|------------------------------------------------------|


1.47


|--------------------------------------------------------|
|-8-8-8-10-8--12-13-12-8-10---8-8-8-10-8--15-13-12-10----|
|--------------------------------------------------------|
|--------------------------------------------------------|
|--------------------------------------------------------|
|--------------------------------------------------------|

Play Part II again.

2.15

|-------------------------------------------------------------|
|-8-7-8-10-8-7-8--12-13-15-13-12--8-7-8---7-8-10-8-7--10-7-8--|
|-------------------------------------------------------------|
|-------------------------------------------------------------|
|-------------------------------------------------------------|
|-------------------------------------------------------------|

|----------------------------------------------------------------------|
|-10-7-8-10-8-7-8-8--12-13-15-13-12--15-12-13--12-13-15-13-12-8-7-8----|
|----------------------------------------------------------------------|
|----------------------------------------------------------------------|
|----------------------------------------------------------------------|
|----------------------------------------------------------------------|


|---------------------------------------------|
|-12-13-15-13-12--8-7-8--10-8-7-8---10-8-8----|
|---------------------------------------------|
|---------------------------------------------|
|---------------------------------------------|
|---------------------------------------------|



|---------------------              --------3p2-----2-3-3/5----3-|
|--------3-------3p0--              ------3-----3-------3/5----3-|
|------0-------0------ Play 3 times ----2---------2------------0-|
|----2-------0--------              --0------------------------0-|
|--3-------2----------              ---------------------------2-|
|---------------------              ---------------------------3-|
Добавлено: 12.10.2013
Другие материалы по этой песне:
  • Аккорды и текст

Страница создана 12.10.2013
http://primanota.ru/robert-plant/the-last-say-goodbye-chords.htm
Привет, Гость.
Предлагаем пройти революционный курс по гитаре.
Подарок от PrimaNota.Ru, забирай!