PrimaNota.ru - самый крупный в мире бесплатный архив песенных текстов, аккордов, табулатур и нот


Robert Plant - Rich Woman - аккорды и текст, видео

Регистрация Запомнить меня
Войти через:  Facebook Google Twitter Vk Yandex Mail.ru

Robert Plant - Rich Woman - аккорды и текст, видео

Печатать
Просмотров: 77
Авторы музыки: Li'l Millet, Dorothy LaBostrie

Rich Woman
Robert Plant
SONG:   RICH WOMAN
ARTIST: ROBERT PLANT and ALISON KRAUSS
TAB BY: DON CZARSKI
EMAIL:  GUITARZAN7@HOTMAIL.COM


                 RICH WOMAN
       ROBERT PLANT and ALISON KRAUSS


INTRO: 

   Bb     Db Bb   Ab     | Bb    Db Bb    Ab     Bb   
E -----------------------|--------------------------|
B -----------------------|--------------------------|
G -----------------------|--------------------------|
D -----------------------|--------------------------|
A --------4--------------|--------4-----------------|
E -6--6-6---6-6-6-4-0-4--|-6--6-6---6-6-6-4-0-4h5h6-|


   Bb     Db Bb    Ab     | Bb     Db Bb   Ab 
E ------------------------|-----------------------|
B ------------------------|-----------------------|
G ---------6--------------|---------6-------------|
D --8--8-8---8-8-8-6-0-6--|--8--8-8---8-8-8-6-0-6-|
A ------------------------|-----------------------|
E ------------------------|-----------------------|



   Bb     Db Bb   Ab     | Bb     Db Bb   Ab  
E -----------------------|-----------------------|
B -----------------------|-----------------------|
G -----------------------|-----------------------|
D -----------------------|-----------------------|
A --------4--------------|--------4--------------|
E -6--6-6---6-6-6-4-0-4--|-6--6-6---6-6-6-4-0-4--|



VERSE:
Bb      Db         Bb        Ab       Bb Db Bb Ab 
I got a woman with plenty of money
Bb          Db        Bb        Ab    Bb Db Bb Ab
She got the money and I got the honey
 Bb       Db    Bb        Ab          Bb Db Bb Ab 
Called my baby late last night
Bb            Db           Bb           Ab    Bb Db Bb Ab
She told me, daddy, everything was all right


CHORUS:
Bb          Db        Bb        Ab       
She got the money and I got the honey
Bb          Db        Bb        Ab       
She got the money and I got the honey
Bb          Db        Bb        Ab      Bb Db Bb Ab 
She got the money and I got the honey


INSTRUMENTAL:
Eb F  Eb F    Bb Db Bb Ab   Eb F  Eb F   Bb Db Bb Ab


VERSE:
   Bb            Db           Bb          Ab  Bb Db Bb Ab 
I don't have to worry because she's real fine
   Bb     Db        Bb        Ab              Bb Db Bb Ab 
I know my baby and she's all mine
     Bb        Db         Bb      Ab          Bb Db Bb Ab 
She give me a Cadillac, a diamond ring
Bb            Db               Bb             Ab   Bb Db Bb Ab 
She told me, daddy, don't you worry about a thing


CHORUS:
Bb          Db        Bb        Ab       
She got the money and I got the honey
Bb          Db        Bb        Ab       
She got the money and I got the honey
Bb          Db        Bb        Ab      Bb Db Bb Ab 
She got the money and I got the honey


INSTRUMENTAL:
Eb F  Eb F    Bb Db Bb Ab   Eb F  Eb F   Bb Db Bb Ab

Bb Db Bb Ab
Bb Db Bb Ab
Bb Db Bb Ab
Bb Db Bb Ab


VERSE:
 Bb        Db      Bb      Ab         Bb Db Bb Ab 
She's all mine and I'm so glad
 Bb             Db        Bb      Ab  Bb Db Bb Ab 
She's the best woman that I ever had


CHORUS:
 Bb        Db      Bb      Ab       
She's all mine and I'm so glad
 Bb        Db      Bb      Ab         
She's all mine and I'm so glad
 Bb        Db      Bb      Ab      
She's all mine and I'm so glad

Bb Db Bb Ab
Bb Db Bb Ab
Bb Db Bb Ab


OUTRO:
 Bb  Db  Bb    Ab
Ahhhhhhhhhhh, stop your train

Bb Db Bb Ab
Bb Db Bb Ab
Bb Db Bb Ab

 Bb  Db   Bb    Ab
Ahhhhhhh, mama stop your train

Bb Db Bb Ab
Bb Db Bb Ab
Bb Db Bb Ab
Bb Db Bb Ab
Bb Db Bb Ab - FADE OUT
Добавлено: 04.04.2016
Вам также может быть интересно:
Другие материалы по этой песне:
  • Аккорды и текст

Страница создана 04.04.2016
http://primanota.ru/robert-plant/rich-woman-chords.htm
Привет, Гость.
Предлагаем пройти революционный курс по гитаре.
Подарок от PrimaNota.Ru, забирай!