PrimaNota.ru - самый крупный в мире бесплатный архив песенных текстов, аккордов, табулатур и нот


Ritchie Blackmore - Minstrel Hall - аккорды и текст, таба, видео

Регистрация Запомнить меня
Войти через:  Facebook Google Twitter Vk Yandex Mail.ru

Ritchie Blackmore - Minstrel Hall - аккорды и текст, таба, видео

Печатать
Просмотров: 878
Minstrel Hall
Ritchie Blackmore
uFo  -  подбор.

Условные обозначения***********************************

}3 
}2 | - означает, что аккорд надо взять не сразу, а медленно, всмысле перебором... 
}0 /

2h3 - означает, что надо взять ноту на 2-ом ладу, а потом другим пальцем левой руки 
ударить по 3-ему ладу не отпуская палец на втором ладу...(hammer-on)

3p2 - берешь ноту на 3-ем ладу потом сдергиваешь палец держа на 2-ом ладу другой палец - это назыв. pull

l.r.(let ring) - означает дать ноте прозвучать, постараться не заглушить ее(так красивее:)

32 - означает взять ноту на 3-ем ладу и сьехать вниз до 2-ого(slide, или скольжение)

5~~~~~~ - означает покачивание струны вверх, вниз(vibrato)

X - означает приглушенная нота или около порожка правой рукой, или левой рукой просто 
положить на указанную струну.

tr~
2(3) - означает трель - пулы и хамеры, между этими нотами исполняются с максимальной 
скоростью.

Song sequence(всмысле структура песни :)***************
Riff 1 
Riff 1 + flute
Riff 2 + flute
Riff 1 + flute
Outro

Riff 1*************************************************
E||-----0---1---0--------------------------------------||
B||-}3-------------3---------------------------------3-||
G||-}2----------------5--3--2--3--2-0---2-2--0---------||
D||-}0------0-------------------------3---------3-2--0-||
A|--------3--1--0-------------0------------||
E------3------1----------------||

E||-----0---1---0---------------------------------------||
B||-}3-------------3------------------------------0-2---||
G||-}2----------------5--3--2--3--2-0----2-2--1-2-------||
D||-}0------0-------------------------3-----------------||
A|--------3--1--0--------------0--------0---||
E------3------1-----------------||

E||-----0----5--3--1--0h1----6-5-3----------------------------------||
B||-2-3-------------------3--------6-5-3----------------------------||
G||-2-----2------------------3-----------5-3-2-3-2h3p2-0------------||
D|--0---------0------------------------------3-2h3p2-0--||
A||-0-----0--------------------------3-------0---------------------4||
E-------------------------------------------||

E||-------0-1-0-------------------------------|-1p0-------||
B||-3---3-------3--------------------------3--|-----3-----||
G||---2-----------5-3-2--3-2-0---2-2-0--------|-------2---||
D||-0-------0------------------3-------3-2-0--|-0-------0-||
A|----3-1-0------------0----------||
E-----1--------------||

Riff 2************************************************************
  l.r.-------------|                                         l.r.-------------|
E||----1----5---5---5-6--8--5-------6-5-6-5h6p5-3------------------------------||
B||--3----5---6---8-----------8--6----------------6-5h6p5-32--------------0-3-||
G--------------------------------------3-2-0-----0-----||
D||--0---------------------------------------------------------------3-2-------||
A||-------4---5---7------8------------0*-----------------------1---------------||
E--------6-------------------------------------0-------||
*-нота берется где-то на долю секунды раньше (5) и звучит до затухания.

E||-1-0-----5-3-1-0---------0h1-0-------------------------||
B||-----3-------------------------3-2h3-2------2h3-2------||
G||-------2---------------3---------------3-2--------3-2--||
D||-0-----------------0-3---------------------------------||
A|------1---------------0-----0-0--0-----0-0--||
E---------------------------------||

E-------------------------------------------------------5~~~~~~-||
B--------------------2-h5-2--------2----5-----------8-----------||
G---0-3-2-0------0-3--------3--0-3---3/6--6-3-3/6-9---9---------||
D||-------0-2h3-2-0---0-2-3----------2-3------------------------------------------------||
A||-0h1-4-----------4-------------------------------------------------------------------||
E---------------------------------------------------------------||
Outro*************************************************************

Outro играется после Riff 1, пропуская выделенную фразу, в два раза медленнее обычного 
темпа.
                tr~								             ~~
E---0-1-0----------------------------------------------------5-5h6p5--------------------|| 
B}3-------3----------11-10-8----10-}10--8--------------5-6-8---------8-6-5--------------||
G}2---------5-3-2(3)---------10----}9-----}9-10--7---7----------------------7-5-3-------||
D}0---0--------------8----------7--}7------------7-7------------------------------7-5---||
A-----------3-1-0------------8------------}7-----5------------------------------------8-7-8--5||
E---------------------------------------------------------------------------------------||
Добавлено: 05.07.2012
Другие материалы по этой песне:

Страница создана 29.05.2012
http://primanota.ru/ritchie-blackmore/minstrel-hall-chords.htm
Привет, Гость.
Предлагаем пройти революционный курс по гитаре.
Подарок от PrimaNota.Ru, забирай!