PrimaNota.ru - самый крупный в мире бесплатный архив песенных текстов, аккордов, табулатур и нот


Rise Against - Unknown Song - таба, видео

Регистрация Запомнить меня
Войти через:  Facebook Google Twitter Vk Yandex Mail.ru

Rise Against - Unknown Song - таба, видео

Печатать
Просмотров: 98
-------------------------------------------------------------------------------
                             Unknown Song - Rise Against
-------------------------------------------------------------------------------
Tabbed by: Josh Orenic
Email:jorenic11@gmail.com

This tab is based on a video my friend took of Tim playing a new song at 
Chicago's Bottom Lounge on 4/9/2012.  The link to this video is 
http://www.youtube.com/watch?v=FC4X1fr_zt4&feature=youtu.be

Tuning: Eb Ab Db Gb Bb eb   Capo on the 2nd fret.

Note:  This tuning is how Tim plays it in the video, but it can also be played 
in standard with a capo on the 1st fret.  Or you can tune a half step up and 
play without a capo if you really feel like it.

Key: G Major (Technically Ab Major because of the tuning)


Intro

    Em            G                       C             G        

e|------------------|------------------|------------------|------------------|
B|--0---0---0-0-0-3-|----3-3-3-3-3-3-3-|--1---1---1-1-1-3-|----3-3-3-3-3-3-3-|
G|--0---0---0-0-0-0-|----0-0-0-0-0-0-0-|--0---0---0-0-0-0-|----0-0-0-0-0-0-0-|
D|--2---2---2-2-2-0-|----0-0-0-0-0-0-0-|--2---2---2-2-2-0-|----0-0-0-0-0-0-0-|
A|--2---2---2-2-2-2-|----2-2-2-2-2-2-2-|--3---3---3-3-3-2-|----2-2-2-2-2-2-2-|
E|--0---0---0-0-0-3-|----3-3-3-3-3-3-3-|----------------3-|----3-3-3-3-3-3-3-|
    
    1 & 2 & 3 & 4 &    1 & 2 & 3 & 4 &    1 & 2 & 3 & 4 &    1 & 2 & 3 & 4 &

    C             G          C       D

e|------------------|------------------|------------------|------------------|
B|--1---1---1-1-1-3-|----3-3-1---1-1-3-|----3-3---3-3-3-3-|--3-3-3-3-3-3-3-3-|
G|--0---0---0-0-0-0-|----0-0-0---0-0-2-|----2-2---2-2-2-2-|--2-2-2-2-2-2-2-2-|
D|--2---2---2-2-2-0-|----0-0-2---2-2-0-|----0-0---0-0-0-0-|--0-0-0-0-0-0-0-0-|
A|--3---3---3-3-3-2-|----2-2-3---3-3---|------------------|------------------|
E|----------------3-|----3-3-----------|------------------|------------------|

    1 & 2 & 3 & 4 &    1 & 2 & 3 & 4 &    1 & 2 & 3 & 4 &    1 & 2 & 3 & 4 &

    Em            G                       C             G

e|------------------|------------------|------------------|------------------|
B|--0---0---0-0-0-3-|----3-3-3-3-3-3-3-|--1---1---1-1-1-3-|----3-3-3-3-3-3-3-|
G|--0---0---0-0-0-0-|----0-0-0-0-0-0-0-|--0---0---0-0-0-0-|----0-0-0-0-0-0-0-|
D|--2---2---2-2-2-0-|----0-0-0-0-0-0-0-|--2---2---2-2-2-0-|----0-0-0-0-0-0-0-|
A|--2---2---2-2-2-2-|----2-2-2-2-2-2-2-|--3---3---3-3-3-2-|----2-2-2-2-2-2-2-|
E|--0---0---0-0-0-3-|----3-3-3-3-3-3-3-|----------------3-|----3-3-3-3-3-3-3-|

    1 & 2 & 3 & 4 &    1 & 2 & 3 & 4 &    1 & 2 & 3 & 4 &    1 & 2 & 3 & 4 &

    C             G          C       D

e|------------------|------------------|------------------|------------------|
B|--1---1---1-1-1-3-|----3-3-1---1-1-3-|----3-3-3-3-3-3-3-|--3-3-3-3-3-3-3-3-|
G|--0---0---0-0-0-0-|----0-0-0---0-0-2-|----2-2-2-2-2-2-2-|--2-2-2-2-2-2-2-2-|
D|--2---2---2-2-2-0-|----0-0-2---2-2-0-|----0-0-0-0-0-0-0-|--0-0-0-0-0-0-0-0-|
A|--3---3---3-3-3-2-|----2-2-3---3-3---|------------------|------------------|
E|----------------3-|----3-3-----------|------------------|------------------|

    1 & 2 & 3 & 4 &    1 & 2 & 3 & 4 &    1 & 2 & 3 & 4 &    1 & 2 & 3 & 4 &


Verse 1

   Cadd9/E  G/B        Cadd9              Cadd9/E G/B        Cadd9

e|------------------|------------------|------------------|------------------|
B|------3-------3---|------3-------3---|------3-------3---|--3---------------|
G|----0---0---0---0-|----0---0---0---0-|----0---0---0---0-|--0---------------|
D|-0h2------4-------|------------------|--2-------4-------|--2---------------|
A|------------------|--3-------3-------|------------------|--3---------------|
E|------------------|------------------|------------------|------------------|

   1  & 2 & 3 & 4 &    1 & 2 & 3 & 4 &    1 & 2 & 3 & 4 &    1 & 2 & 3 & 4 &

    Cadd9/E G/B        Cadd9              Cadd9/E G/B        Cadd9 

e|------------------|------------------|------------------|------------------|
B|------3-------3---|------3-------3---|------3-------3---|------3-------3---|
G|----0---0---0---0-|----0---0---0---0-|----0---0---0---0-|----0---0---0---0-|
D|--2-------4-------|------------------|--2-------4-------|------------------|
A|------------------|--3-------3-------|------------------|--3-------3-------|
E|------------------|------------------|------------------|------------------|
    
    1 & 2 & 3 & 4 &    1 & 2 & 3 & 4 &    1 & 2 & 3 & 4 &    1 & 2 & 3 & 4 &

    Cadd9/E G/B        Cadd9   G/B        D

e|------------------|------------------|------------------|------------------|
B|------3-------3---|------3-------3---|------3-------3---|------3---3-------|
G|----0---0---0---0-|----0---0---0---0-|----2---3---2---2-|----2---2-2-------|
D|--2-------4-------|------------------|--0-------0-------|--0-------0-------|
A|------------------|--3-------2-------|------------------|------------------|
E|------------------|------------------|------------------|------------------|

    1 & 2 & 3 & 4 &    1 & 2 & 3 & 4 &    1 & 2 & 3 & 4 &    1 & 2 & 3 & 4 &

    Cadd9/E G/B        Cadd9              Cadd9/E G/B        Cadd9

e|------------------|------------------|------------------|------------------|
B|------3-------3---|------3-------3---|------3-------3---|------3-------3---|
G|----0---0---0---0-|----0---0---0---0-|----0---0---0---0-|----0---0---0---0-|
D|--2-------4-------|------------------|--2-------4-------|------------------|
A|------------------|--3-------3-------|------------------|--3-------3-------|
E|------------------|------------------|------------------|------------------|

    1 & 2 & 3 & 4 &    1 & 2 & 3 & 4 &    1 & 2 & 3 & 4 &    1 & 2 & 3 & 4 &

    Cadd9/E G/B        Cadd9   G/B        D

e|------------------|------------------|------------------|------------------|
B|------3-------3---|------3-------3---|--3---3---3-3-3-3-|--3---3---3-3-3-3-|
G|----0---0---0---0-|----0---0---0---0-|--2---2---2-2-2-2-|--2---2---2-2-2-2-|
D|--2-------4-------|------------------|--0---0---0-0-0-0-|--0---0---0-0-0-0-|
A|------------------|--3-------2-------|------------------|------------------|
E|------------------|------------------|------------------|------------------|

    1 & 2 & 3 & 4 &    1 & 2 & 3 & 4 &    1 & 2 & 3 & 4 &    1 & 2 & 3 & 4 &

PreChorus 1

For the PreChorus use these chord shapes

    Em7     GMaj7/F#   Cadd9   G          Am7sus4 Am

e|------------------|------------------|------------------|
B|--3-------3-------|--3-------3-------|--3---------------|
G|--0-------0-------|--0-------0-------|--0-------2-------|
D|--2-------0-------|--2-------0-------|--2-------2-------|
A|--2-------x-------|--3-------2-------|--0-------0-------|
E|--0-------2-------|----------3-------|------------------|

Tim kind of half picks/half strums this part so use the chord shapes above and 
the tab below as a basic pattern for your hand to follow but dont try to be 
too exact.

    
    Em7     GMaj7/F#   Cadd9              Em7     G          Cadd9

e|------------------|------------------|------------------|------------------|
B|----3-3-3---3-3-3-|----3-3-3---3-3-3-|----3-3-3---3-3-3-|----3-3-3---3-3-3-|
G|------0-------0---|------0-------0---|------0-------0---|------0-------0---|
D|------------------|------------------|------------------|------------------|
A|------------------|--3-------3-------|------------------|--3-------3-------|
E|--0-------2-------|------------------|--0-------3-------|------------------|

    1 & 2 & 3 & 4 &    1 & 2 & 3 & 4 &    1 & 2 & 3 & 4 &    1 & 2 & 3 & 4 &

    Em7     GMaj7/F#   G       Am7sus4    Cadd9              Am

e|------------------|------------------|------------------|------------------|
B|----3-3-3---3-3-3-|----3-3-3---3-3-3-|----3-3-3---3-3-3-|------------------|
G|------0-------0---|------0-------0---|------0-------0---|--2---2---2-2-2-2-|
D|------------------|------------------|------------------|--2---2---2-2-2-2-|
A|------------------|----------0-------|--3-------3-------|--0---0---0-0-0-0-|
E|--0-------2-------|--3---------------|------------------|------------------|

    1 & 2 & 3 & 4 &    1 & 2 & 3 & 4 &    1 & 2 & 3 & 4 &    1 & 2 & 3 & 4 &

Chorus 1

Note:  The chorus is similar to the intro but it has a slightly different
rythm and strumming pattern.

    Em                 G                  C                  G

e|------------------|------------------|------------------|------------------|
B|--0---0---0-0-0-0-|--3---3---3-3-3-3-|--1---1---1-1-1-1-|--3---3---3-3-3-3-|
G|--0---0---0-0-0-0-|--0---0---0-0-0-0-|--0---0---0-0-0-0-|--0---0---0-0-0-0-|
D|--2---2---2-2-2-2-|--0---0---0-0-0-0-|--0h2-2---2-2-2-2-|--0---0---0-0-0-0-|
A|--2---2---2-2-2-2-|--2---2---2-2-2-2-|--3---3---3-3-3-3-|--2---2---2-2-2-2-|
E|--0---0---0-0-0-0-|--3---3---3-3-3-3-|------------------|--3---3---3-3-3-3-|

    1 & 2 & 3 & 4 &    1 & 2 & 3 & 4 &    1 & 2 & 3 & 4 &    1 & 2 & 3 & 4 &

    C                  G       C          D

e|------------------|------------------|------------------|------------------|
B|--1---1---1-1-1-1-|--3---3-3-3---3-3-|--3---3---3-3-3-3-|------3-3---3-3-3-|
G|--0---0---0-0-0-0-|--0---0-0-0---0-0-|--2---2---2-2-2-2-|------2-2---2-2-2-|
D|--0h2-2---2-2-2-2-|--0---0-0-2---2-2-|--0---0---0-0-0-0-|------0-0---0-0-0-|
A|--3---3---3-3-3-3-|--2---2-2-3---3-3-|------------------|------------------|
E|------------------|--3---3-3---------|------------------|------------------|

    1 & 2 & 3 & 4 &    1 & 2 & 3 & 4 &    1 & 2 & 3 & 4 &    1 & 2 & 3 & 4 &

    Em                 G                  C                  G

e|------------------|------------------|------------------|------------------|
B|--0---0---0-0-0-0-|--3---3---3-3-3-3-|--1---1---1-1-1-1-|--3---3---3-3-3-3-|
G|--0---0---0-0-0-0-|--0---0---0-0-0-0-|--0---0---0-0-0-0-|--0---0---0-0-0-0-|
D|--2---2---2-2-2-2-|--0---0---0-0-0-0-|--0h2-2---2-2-2-2-|--0---0---0-0-0-0-|
A|--2---2---2-2-2-2-|--2---2---2-2-2-2-|--3---3---3-3-3-3-|--2---2---2-2-2-2-|
E|--0---0---0-0-0-0-|--3---3---3-3-3-3-|------------------|--3---3---3-3-3-3-|

    1 & 2 & 3 & 4 &    1 & 2 & 3 & 4 &    1 & 2 & 3 & 4 &    1 & 2 & 3 & 4 &

    C             G          C              D                      

e|------------------|------------------|------------------|------------------|
B|--1---1---1-1-1-3-|----3-3-3---3-3-3-|----3-3-3-3-3-3-3-|--3---------------|
G|--0---0---0-0-0-0-|----0-0-0---0-0-2-|----2-2-2-2-2-2-2-|--2---------------|
D|--0h2-2---2-2-2-0-|----0-0-2---2-2-0-|----0-0-0-0-0-0-0-|--0---------------|
A|--3---3---3-3-3-2-|----2-2-3---3-3---|------------------|------------------|
E|----------------3-|----3-3-----------|------------------|------------------|

    1 & 2 & 3 & 4 &    1 & 2 & 3 & 4 &    1 & 2 & 3 & 4 &    1 & 2 & 3 & 4 &

Verse 2

   Cadd9/E  G/B        Cadd9              Cadd9/E G/B        Cadd9

e|------------------|------------------|------------------|------------------|
B|------3-------3---|------3-------3---|------3-------3---|--3---------------|
G|----0---0---0---0-|----0---0---0---0-|----0---0---0---0-|--0---------------|
D|-0h2------4-------|------------------|-0h2------4-------|--2---------------|
A|------------------|--3-------3-------|------------------|--3---------------|
E|------------------|------------------|------------------|------------------|

   1  & 2 & 3 & 4 &    1 & 2 & 3 & 4 &   1  & 2 & 3 & 4 &    1 & 2 & 3 & 4 &

    Cadd9/E G/B        Cadd9              Cadd9/E G/B        Cadd9 

e|------------------|------------------|------------------|------------------|
B|------3-------3---|------3-------3---|------3-------3---|------3-------3---|
G|----0---0---0---0-|----0---0---0---0-|----0---0---0---0-|----0---0---0---0-|
D|-0h2------4-------|------------------|--2-------4-------|------------------|
A|------------------|--3-------3-------|------------------|--3-------3-------|
E|------------------|------------------|------------------|------------------|
    
   1  & 2 & 3 & 4 &    1 & 2 & 3 & 4 &    1 & 2 & 3 & 4 &    1 & 2 & 3 & 4 &

    Cadd9/E G/B        Cadd9   G/B        D

e|------------------|------------------|------------------|------------------|
B|------3-------3---|------3-------3---|------3-------3---|------3---3-------|
G|----0---0---0---0-|----0---0---0---0-|----2---3---2---2-|----2---2-2-------|
D|-0h2------4-------|------------------|--0-------0-------|--0-------0-------|
A|------------------|--3-------2-------|------------------|------------------|
E|------------------|------------------|------------------|------------------|

   1  & 2 & 3 & 4 &    1 & 2 & 3 & 4 &    1 & 2 & 3 & 4 &    1 & 2 & 3 & 4 &

    Cadd9/E G/B        Cadd9              Cadd9/E G/B        Cadd9

e|------------------|------------------|------------------|------------------|
B|------3-------3---|------3-------3---|------3-------3---|------3-------3---|
G|----0---0---0---0-|----0---0---0---0-|----0---0---0---0-|----0---0---0---0-|
D|--2-------4-------|------------------|--2-------4-------|------------------|
A|------------------|--3-------3-------|------------------|--3-------3-------|
E|------------------|------------------|------------------|------------------|

    1 & 2 & 3 & 4 &    1 & 2 & 3 & 4 &    1 & 2 & 3 & 4 &    1 & 2 & 3 & 4 &

    Cadd9/E G/B        Cadd9   G/B        D

e|------------------|------------------|------------------|------------------|
B|------3-------3---|------3-------3---|--3---3---3-3-3-3-|--3-3-3-3-3-3-3-3-|
G|----0---0---0---0-|----0---0---0---0-|--2---2---2-2-2-2-|--2-2-2-2-2-2-2-2-|
D|--2-------4-------|------------------|--0---0---0-0-0-0-|--0-0-0-0-0-0-0-0-|
A|------------------|--3-------2-------|------------------|------------------|
E|------------------|------------------|------------------|------------------|

PreChorus 2

    Em7     GMaj7/F#   Cadd9   G          Am7sus4 Am

e|------------------|------------------|------------------|
B|--3-------3-------|--3-------3-------|--3---------------|
G|--0-------0-------|--0-------0-------|--0-------2-------|
D|--2-------0-------|--2-------0-------|--2-------2-------|
A|--2-------x-------|--3-------2-------|--0-------0-------|
E|--0-------2-------|----------3-------|------------------|

    Em7     GMaj7/F#   Cadd9              Em7     G          Cadd9

e|------------------|------------------|------------------|------------------|
B|----3-3-3---3-3-3-|----3-3-3---3-3-3-|----3-3-3---3-3-3-|----3-3-3---3-3-3-|
G|------0-------0---|------0-------0---|------0-------0---|------0-------0---|
D|------------------|------------------|------------------|------------------|
A|------------------|--3-------3-------|------------------|--3-------3-------|
E|--0-------2-------|------------------|--0-------3-------|------------------|

    1 & 2 & 3 & 4 &    1 & 2 & 3 & 4 &    1 & 2 & 3 & 4 &    1 & 2 & 3 & 4 &

    Em7     GMaj7/F#   G       Am7sus4    Cadd9              Am7sus4

e|------------------|------------------|------------------|------------------|
B|----3-3-3---3-3-3-|----3-3-3---3-3-3-|--3---3---3-3-3-3-|--3---3-3-x-x-x-x-|
G|------0-------0---|------0-------0---|--0---0---0-0-0-0-|--0---0-0-x-x-x-x-|
D|------------------|------------------|--2---2---2-2-2-2-|--2---2-2-x-x-x-x-|
A|------------------|----------0-------|--3---3---3-3-3-3-|--0---0-0-x-x-x-x-|
E|--0-------2-------|--3---------------|------------------|------------------|

Chorus 2

    Em                 G                  C                  G

e|------------------|------------------|------------------|------------------|
B|--0---0---0-0-0-0-|--3---3---3-3-3-3-|--1---1---1-1-1-1-|--3---3---3-3-3-3-|
G|--0---0---0-0-0-0-|--0---0---0-0-0-0-|--0---0---0-0-0-0-|--0---0---0-0-0-0-|
D|--2---2---2-2-2-2-|--0---0---0-0-0-0-|--0h2-2---2-2-2-2-|--0---0---0-0-0-0-|
A|--2---2---2-2-2-2-|--2---2---2-2-2-2-|--3---3---3-3-3-3-|--2---2---2-2-2-2-|
E|--0---0---0-0-0-0-|--3---3---3-3-3-3-|------------------|--3---3---3-3-3-3-|

    1 & 2 & 3 & 4 &    1 & 2 & 3 & 4 &    1 & 2 & 3 & 4 &    1 & 2 & 3 & 4 &

    C                  G       C          D

e|------------------|------------------|------------------|------------------|
B|--1---1---1-1-1-1-|--3---3-3-3---3-3-|--3---3---3-3-3-3-|--3-3-3-3-3-3-3-3-|
G|--0---0---0-0-0-0-|--0---0-0-0---0-0-|--2---2---2-2-2-2-|--2-2-2-2-2-2-2-2-|
D|--0h2-2---2-2-2-2-|--0---0-0-2---2-2-|--0---0---0-0-0-0-|--0-0-0-0-0-0-0-0-|
A|--3---3---3-3-3-3-|--2---2-2-3---3-3-|------------------|------------------|
E|------------------|--3---3-3---------|------------------|------------------|

    1 & 2 & 3 & 4 &    1 & 2 & 3 & 4 &    1 & 2 & 3 & 4 &    1 & 2 & 3 & 4 &

    Em                 G                  C                  G

e|------------------|------------------|------------------|------------------|
B|--0---0---0-0-0-0-|--3---3---3-3-3-3-|--1---1---1-1-1-1-|--3---3---3-3-3-3-|
G|--0---0---0-0-0-0-|--0---0---0-0-0-0-|--0---0---0-0-0-0-|--0---0---0-0-0-0-|
D|--2---2---2-2-2-2-|--0---0---0-0-0-0-|--0h2-2---2-2-2-2-|--0---0---0-0-0-0-|
A|--2---2---2-2-2-2-|--2---2---2-2-2-2-|--3---3---3-3-3-3-|--2---2---2-2-2-2-|
E|--0---0---0-0-0-0-|--3---3---3-3-3-3-|------------------|--3---3---3-3-3-3-|

    1 & 2 & 3 & 4 &    1 & 2 & 3 & 4 &    1 & 2 & 3 & 4 &    1 & 2 & 3 & 4 &

    C             G          C       D                      

e|------------------|------------------|------------------|------------------|
B|--1---1---1-1-1-3-|----3-3-3---3-3-3-|----3-3-3-3-3-3-3-|--3-3-3-3-3-3-3-3-|
G|--0---0---0-0-0-0-|----0-0-0---0-0-2-|----2-2-2-2-2-2-2-|--2-2-2-2-2-2-2-2-|
D|--0h2-2---2-2-2-0-|----0-0-2---2-2-0-|----0-0-0-0-0-0-0-|--0-0-0-0-0-0-0-0-|
A|--3---3---3-3-3-2-|----2-2-3---3-3---|------------------|------------------|
E|----------------3-|----3-3-----------|------------------|------------------|

    1 & 2 & 3 & 4 &    1 & 2 & 3 & 4 &    1 & 2 & 3 & 4 &    1 & 2 & 3 & 4 &

Bridge

    Cadd9              Em      D          Em      D          G

e|------------------|--7---7-x-5---5-x-|------------------|--3---3-3-3-3-3-3-|
B|--3---3---3-3-3-x-|--8---8-x-7---7-x-|--12--12--10--10--|--3---3-3-3-3-3-3-|
G|--0---0---0-0-0-x-|--9---9-x-7---7-x-|--12--12--11--11--|--0---0-0-0-0-0-0-|
D|--2---2---2-2-2-x-|------------------|------------------|--0---0-0-0-0-0-0-|
A|--3---3---3-3-3-x-|------------------|------------------|--2---2-2-2-2-2-2-|
E|------------------|------------------|------------------|--3---3-3-3-3-3-3-|

    1 & 2 & 3 & 4 &    1 & 2 & 3 & 4 &    1 & 2 & 3 & 4 &    1 & 2 & 3 & 4 &

    C                  G                  Em                

e|------------------|------------------|--0---0-------0---|--------0-x-x-x-x-|
B|--1---1---1-1-1-1-|--3---3---3-3-3-3-|--0---0-------0---|--------0-x-x-x-x-|
G|--0---0---0-0-0-0-|--0---0---0-0-0-0-|--0---0-------0---|--------0-x-x-x-x-|
D|--2---2---2-2-2-2-|--0---0---0-0-0-0-|--2---2-------2---|--------2-x-x-x-x-|
A|--3---3---3-3-3-3-|--2---2---2-2-2-2-|--2---2-------2---|--------2-x-x-x-x-|
E|------------------|--3---3---3-3-3-3-|--0---0-------0---|--------0-x-x-x-x-|

    1 & 2 & 3 & 4 &    1 & 2 & 3 & 4 &    1 & 2 & 3 & 4 &    1 & 2 & 3 & 4 &

    Cadd9              Em      D          Em      D          G

e|------------------|--7---7-x-5---5-x-|------------------|--3---------------|
B|--3---3---3-3-3-x-|--8---8-x-7---7-x-|--12--12--10--10--|--3---------------|
G|--0---0---0-0-0-x-|--9---9-x-7---7-x-|--12--12--11--11--|--0---------------|
D|--2---2---2-2-2-x-|------------------|------------------|--0---------------|
A|--3---3---3-3-3-x-|------------------|------------------|--2---------------|
E|------------------|------------------|------------------|--3---------------|

    1 & 2 & 3 & 4 &    1 & 2 & 3 & 4 &    1 & 2 & 3 & 4 &    1 & 2 & 3 & 4 &

    C                  D                  G

e|------------------|------------------|------------------|------------------|
B|--1---------------|--3---------------|--3---3---3-3---3-|--3-----3-3-3-3-3-|
G|--0---------------|--2---------------|--0---0---0-0---0-|--0-----0-0-0-0-0-|
D|--2---------------|--0---------------|--0---0---0-0---0-|--0-----0-0-0-0-0-|
A|--3---------------|------------------|--2---2---2-2---2-|--2-----2-2-2-2-2-|
E|------------------|------------------|--3---3---3-3---3-|--3-----3-3-3-3-3-|

    1 & 2 & 3 & 4 &    1 & 2  & 3 & 4 &    1 & 2 & 3 & 4 &    1 & 2 & 3 & 4 &

   Cadd9/E  G/B        Cadd9             Cadd9/E  G/B        Cadd9 

e|------------------|------------------|------------------|------------------|
B|------3-------3---|------3-------3---|------3-------3---|------3-------3---|
G|----0---0---0---0-|----0---0---0---0-|----0---0---0---0-|----0---0---0---0-|
D|-0h2------4-------|------------------|-0h2------4-------|------------------|
A|------------------|--3-------3-------|------------------|--3-------3-------|
E|------------------|------------------|------------------|------------------|
    
   1  & 2 & 3 & 4 &    1 & 2 & 3 & 4 &   1  & 2 & 3 & 4 &    1 & 2 & 3 & 4 &

   Cadd9/E  G/B        Cadd9                                                                    

e|------------------|------------------|------------------|------------------|
B|------3-------3---|--3---------------|------------------|------------------|
G|----0---0---0---0-|--0---------------|------------------|------------------|
D|-0h2------4-------|--2---------------|------------------|------------------|
A|------------------|--3---------------|------------------|------------------|
E|------------------|------------------|------------------|------------------|
    
   1  & 2 & 3 & 4 &    1 & 2 & 3 & 4 &    1 & 2 & 3 & 4 &    1 & 2 & 3 & 4 &



************************************

| /   slide up
| \   slide down
| h   hammer-on
| p   pull-off
| ~   vibrato
| +   harmonic
| x   Mute note
| b   Bend
| pb  Pre-bend
| br  Bend release
| pbr Pre-bend release
| brb Bend release bend

************************************
Добавлено: 31.08.2013
Другие материалы по этой песне:
  • Аккорды и текст

Страница создана 31.08.2013
http://primanota.ru/rise-against/unknown-song-chords.htm
Привет, Гость.
Предлагаем пройти революционный курс по гитаре.
Подарок от PrimaNota.Ru, забирай!