PrimaNota.ru - самый крупный в мире бесплатный архив песенных текстов, аккордов, табулатур и нот


Rise Against - What Are We Gonna Do - таба, видео

Регистрация Запомнить меня
Войти через:  Facebook Google Twitter Vk Yandex Mail.ru

Rise Against - What Are We Gonna Do - таба, видео

Печатать
Просмотров: 140
Уроки эстрадного вокала в Санкт-Петербурге
What Are We Gonna Do?
Rise Against
Tuning: Drop C# (= Drop D a half step down)

This is one of the new songs, Tim played at the Revival Tour.
I tabbed it by ear, so there may be some minor mistakes. If you have corrections, just 
post them in the comment section, I'll update the tab.


Note: The e string is muted most of the time. Just watch the video of the preformance 
several times to get a feeling for the timing and how the song is played.



Intro:

e|--x----------------------------|
B|--3---1------1---1-----1---3-3-|
G|--2---2-0-2--2---0-----0---0-0-|
D|--0---3------3---2-0-2-3---0-0-|
A|--0--------------3-----3---x-x-|
D|-0-------------------------5-5-|

e|--x----------------------------|
B|--3---1------1---1-----1---3-3-|
G|--2---2-0-2--2---0-----0---0-0-|
D|--0---3------3---2-0-2-3---0-0-|
A|--0--------------3-----3---x-x-|
D|-0-------------------------5-5-|


x2

Chorus1:

e|-xxxx----------------------------------|
B|-xxxx----3---1------1---1-----1---3-3--|
G|-xxxx----2---2-0-2--2---0-----0---0-0--|
D|-xxxx----0---3------3---2-0-2-3---0-0--|
A|-xxxx----0--------------3-----3---x-x--|
D|-xxxx----0------------------------5-5--|
 --What...do?...

e|-x--------------------------------|
B|-x--3---1------1---1-----1---3-3--|
G|-x--2---2-0-2--2---0-----0---0-0--|
D|-x--0---3------3---2-0-2-3---0-0--|
A|-x--0--------------3-----3---x-x--|
D|-x--0------------------------5-5--|

x2

e|-x-----------------00---------------|
B|-x--3---1------1---11---3-3-3-3---1-|
G|-x--2---2-0-2--2---22---0-0-0-0---0-|
D|-x--0---3------3---33---0-0-0-0---0-|
A|-x--0-------------------x-x-3-3---x-|
D|-x--0-------------------5-5-5-5---3-|


Verse1:

part1:
e|------------------------------|
B|-3---1---1--------------------|
G|-2---2---0---3---3------------|
D|-0---x---2---3---3------------|
A|-0---3---3---1---1------------|
D|-0---3------------------------|

e|--------------------|
B|-3---1---1---10-----|
G|-2---2---0---0------|
D|-0---x---2---x------|
A|-0---3---3---12-----|
D|-0---3--------------|


part2:
e|----------------5---5----------|
B|------------1---3---3-------1--|
G|--------3---0---0---0---3---0--|
D|--0-3-5-3---2---0---0---3---2--|
A|--0-3-5-1---3---x---x---1---3--|
D|--0-3-5---------5---5----------|



Interlude1:

e|-xxxxx----------------------|
B|-xxxxx-3-3-1-----3----------|
G|-xxxxx-2-2-0-2---0----------|
D|-xxxxx-0-0-x-----0----------|
A|-xxxxx-0-0-3-----x----------|
D|-xxxxx-0-0-3-----5----------|

Chorus2:


e|-xxxxx---------------------------------|
B|-33333---3---1------1---1-----1---3-3--|
G|-00000---2---2-0-2--2---0-----0---0-0--|
D|-00000---0---3------3---2-0-2-3---0-0--|
A|-xxxxx---0--------------3-----3---x-x--|
D|-55555---0------------------------5-5--|
 --What....do?...

e|-x--------------------------------|
B|-x--3---1------1---1-----1---3-3--|
G|-x--2---2-0-2--2---0-----0---0-0--|
D|-x--0---3------3---2-0-2-3---0-0--|
A|-x--0--------------3-----3---x-x--|
D|-x--0------------------------5-5--|

x2

e|-x-----------------00---------------|
B|-x--3---1------1---11---3-3-3-3---1-|
G|-x--2---2-0-2--2---22---0-0-0-0---0-|
D|-x--0---3------3---330--0-0-0-0---0-|
A|-x--0-------------------x-x-3-3---x-|
D|-x--0-------------------5-5-5-5---3-|


Verse2:


part1:
e|------------------------------|
B|-3---1---1--------------------|
G|-2---2---0---3---3------------|
D|-0---x---2---3---3------------|
A|-0---3---3---1---1------------|
D|-0---3------------------------|
   ...........                         (palm mute)

e|--------------------|
B|-3---1---1---10-----|
G|-2---2---0---0------|
D|-0---x---2---x------|
A|-0---3---3---12-----|
D|-0---3--------------|


part2:
e|----------------5---5----------|
B|------------1---3---3-------1--|
G|--------3---0---0---0---3---0--|
D|--0-3-5-3---2---0---0---3---2--|
A|--0-3-5-1---3---x---x---1---3--|
D|--0-3-5---------5---5----------|





Interlude2:


e|-xxxxx----------------------|
B|-xxxxx-3-3-3--3--3----------|
G|-xxxxx-2-2-0--0--0----------|
D|-xxxxx-0-0-0--0--0----------|
A|-xxxxx-0-0-x--3--x----------|
D|-xxxxx-0-0-3--x--5----------|

e|----------------------|
B|-3-3-3--3--3----------|
G|-2-2-0--0--0----------|
D|-0-0-0--0--0----------|
A|-0-0-x--3--x----------|
D|-0-0-3--x--5----------|


Outro:


e|----------------------|
B|-3-3-3--3--3----------|
G|-2-2-0--0--0----------|
D|-0-0-0--0--0----------|
A|-0-0-x--3--x----------|
D|-0-0-3--x--5----------|

x9

e|----------------------|
B|-3-----3---3----------|
G|-2-----0---0----------|
D|-0-----0---0----------|
A|-0-----x---x----------|
D|-0-----3---5----------|


e|--------------------|
B|-------3-3----------|
G|-------0-3----------|
D|-------0-0----------|
A|-------x-0----------|
D|-------3-0----------|


That's it, hope you like it!
Добавлено: 03.12.2013
Другие материалы по этой песне:
  • Аккорды и текст

Страница создана 03.12.2013
http://primanota.ru/rise-against/what-are-we-gonna-do-chords.htm
Привет, Гость.
Предлагаем пройти революционный курс по гитаре.
Подарок от PrimaNota.Ru, забирай!