PrimaNota.ru - самый крупный в мире бесплатный архив песенных текстов, аккордов, табулатур и нот


Rio - Te Espero - таба, видео

Регистрация Запомнить меня
Войти через:  Facebook Google Twitter Vk Yandex Mail.ru

Rio - Te Espero - таба, видео

Печатать
Просмотров: 123
Bueno esta vez les dejo esta excelente cancion del grupo Rio, cancion nueva
despues de 30 años de trayectoria, espero que les guste y sirva a todos!!!! :D


Intro:

B:-5---5---6---6---7---7---6
G:--------------------------
D:---7---7---7---7---7---7--


Verso:

Bm   E          A       F#m
Sola dice que es feliz
Bm          E           A        F#m
Y sin buscarte ya se que te perdi
Bm        E         A      D     A
No se disimular, me duele el corazón
Bm      E           A   D   A
Por ti, porque ya no estas.


Bm         E          A       F#m
Siento que perdi el horizonte
Bm              E          A       F#m
Y al mirarme al espejo comprendi
     Bm       E          A       F#m
Que el tiempo nunca se detiene
Bm           E          A       F#m
Y en silencio pienso en ti,
Bm           E          A  D     A
Y en silencio pienso en ti


Coro:

            Bm   E    A       F#m
Y ahora que tu ya no estas
             Bm
No puedo dormir, (No puedo dormir)
  Em          A       F#m
no puedo soñar (No puedo soñar)
           Bm   E
No se que sentir, (No se que sentir)
        A       F#m
porque te perdi (Porque te perdi)
            Bm         A
Solo se que yo te espero


B:-5---5---6---6---7---7---6
G:--------------------------
D:---7---7---7---7---7---7--


SOLO:

e:--------------------------------5-7-5--7-3-7-5
B:-5-5-7-5--------------5---5-5-7---------------
G:-----------4--4-4-6-7-------------------------
D:----------------------------------------------
A:----------------------------------------------
E:----------------------------------------------

e:------------------------------------
B:------------------------------------
G:---------------4/6-4-4/6-4----4/6-6-
D:-----4-7-7-4-7-------------7--------
A:-7-7--------------------------------
E:------------------------------------

e:------------------------------------
B:------------------------------------
G:---------------4/6-4-4/6-4----------
D:-----4-7-7-4-7--------------7-7/9-7-
A:-7-7--------------------------------
E:------------------------------------


A D A


Bm         E         A        F#m
Sueños que se apagan lentamente
Bm         E          A       F#m
Gente que no sabe que paso
Bm          E          A       F#m
No se donde estas pero igual ire a buscarte
Bm         E    A    D   A
Porque tu vives en mi


Coro:

            Bm   E    A       F#m
Y ahora que tu ya no estas
             Bm
No puedo dormir, (No puedo dormir)
  Em          A       F#m
no puedo soñar (No puedo soñar)
           Bm   E
No se que sentir, (No se que sentir)
        A       F#m
porque te perdi (Porque te perdi)
            Bm         A
Solo se que yo te espero


            Bm   E    A       F#m
Y ahora que tu ya no estas
             Bm
No puedo dormir, (No puedo dormir)
  Em          A       F#m
no puedo soñar (No puedo soñar)
           Bm   E
No se que sentir, (No se que sentir)
        A       F#m
porque te perdi (Porque te perdi)
            Bm         A
Solo se que yo te espero


(Repetir circuito hasta acabar)


Espero que les haya servido, luego subire los arreglos que hace la guitarra
y que viva el rock!!!!!!
Добавлено: 18.07.2015
Вам также может быть интересно:
Другие материалы по этой песне:
  • Аккорды и текст

Страница создана 18.07.2015
http://primanota.ru/rio/te-espero-chords.htm
Привет, Гость.
Предлагаем пройти революционный курс по гитаре.
Подарок от PrimaNota.Ru, забирай!