PrimaNota.ru - самый крупный в мире бесплатный архив песенных текстов, аккордов, табулатур и нот


Rio - Por Tu Amor - таба, видео

Регистрация Запомнить меня
Войти через:  Facebook Google Twitter Vk Yandex Mail.ru

Rio - Por Tu Amor - таба, видео

Печатать
Просмотров: 115
INTRO: MIm RE

LA TONADA SUENA ASI:

1-----0--3-2-0-----0-0--------0-3-2-0-----0-0
2-0-3----------3-0-------00-3---------3-0----
3--------------------------------------------
4--------------------------------------------
5--------------------------------------------
6--------------------------------------------

1---3-5-7---7-5-3-5---5-3-2-3---3-2-0-2---5-3-2-0
2------------------------------------------------
3------------------------------------------------
4------------------------------------------------
5------------------------------------------------
6------------------------------------------------

1---3-2-0-------3-2-0-------3-2-0-----
2---------3-5----------3-5---------3-5
3-------------------------------------
4-------------------------------------
5-------------------------------------
6-------------------------------------

        MIm         RE             MIm
Por tu amor una vez más, siento morir
MIm                 RE           MIm
mi corazon una vez mas sufre por ti

MIm     SOL           RE
Sin tu amor, no sé vivir
        MIm        SI7                MIm
no sé soñar, no sé qué hacer,quiero morir.

        MIm          RE            MIm
Por tu amor una vez más, siento morir
MIm                 RE            MIm
mi corazon una ves mas, sufre por ti

MIm     SOL           RE
Sin tu amor, no sé vivir
        MIm         SI7               MIm
no sé soñar, no sé qué hacer,quiero morir.

1---3-2-0-------3-2-0-------3-2-0-----
2---------3-5----------3-5---------3-5
3-------------------------------------
4-------------------------------------
5-------------------------------------
6-------------------------------------

MIm RE         MIm     RE        MIm
sin ti no se vivir sin ti me morire
      RE       MIm    RE           MIm
para que vivir asi si tu no estas aqui

MIm RE         MIm     RE        MIm
sin ti no se vivir sin ti me morire
      RE       MIm    RE           MIm
para que vivir asi si tu no estas aqui

MIm RE         MIm     RE        MIm
sin ti no se vivir sin ti me morire
      RE       MIm    RE           MIm
para que vivir asi si tu no estas aqui

MIm RE         MIm     RE        MIm
sin ti no se vivir sin ti me morire
      RE       MIm    RE           MIm
para que vivir asi si tu no estas aqui


DURANTE PUEDES USAR ESTOS ACORDES

MIm RE MIm RE MIm SOL RE MIm SI7 MIm

1-----0--3-2-0-----0-0--------0-3-2-0-----0-0
2-0-3----------3-0-------00-3---------3-0----
3--------------------------------------------
4--------------------------------------------
5--------------------------------------------
6--------------------------------------------

1---3-5-7---7-5-3-5---5-3-2-3---3-2-0-2---5-3-2-0
2------------------------------------------------
3------------------------------------------------
4------------------------------------------------
5------------------------------------------------
6------------------------------------------------

MIm     SOL           RE
Sin tu amor, no sé vivir
        MIm         SI7               MIm
no sé soñar, no sé qué hacer,quiero morir.

MIm     SOL           RE
Sin tu amor, no sé vivir
        MIm         SI7               MIm
no sé soñar, no sé qué hacer,quiero morir.
Добавлено: 18.07.2015
Другие материалы по этой песне:
  • Аккорды и текст

Страница создана 18.07.2015
http://primanota.ru/rio/por-tu-amor-chords.htm
Привет, Гость.
Предлагаем пройти революционный курс по гитаре.
Подарок от PrimaNota.Ru, забирай!