PrimaNota.ru - самый крупный в мире бесплатный архив песенных текстов, аккордов, табулатур и нот


Rio - Carol Quiere Un Viaje A Londres - аккорды и текст, таба, видео

Регистрация Запомнить меня
Войти через:  Facebook Google Twitter Vk Yandex Mail.ru

Rio - Carol Quiere Un Viaje A Londres - аккорды и текст, таба, видео

Печатать
Просмотров: 110
Carol Quiere Un Viaje A Londres
Rio
esta cancion se la dedico a los burros que no saben sacar canciones
y todabia uno les enseña y se molestan


INTRO: E  - Am - D 


E    Am      D 
     UH  UH  UH     4vcs


RASGEO

    E                  Am             D 
E-----------------------------------------------------------|
B----5..--3------------5..--3----------5--3--5--3-----------| tocar solo estas
G----2..--2------------2..--2----------2--2--2--2-----------| estas cuerdas
D-----------------------------------------------------------|
A-----------------------------------------------------------|
E-----------------------------------------------------------|

  E                                   Am                 D 
  caro quiere un viaje a londres y su mami se lo va a pagar
  E                              Am                  D 
  caro quiere un auto nuevo y su papi se lo va a comprar


   G      D       A     C      E    E 
E---3------2------5------3------0---------------------------|
B---3------3------5------5------0----3..---5..--3---5-------|
G---4------2------6------5------1----2..---2..--2---2-------|
D---5------4------7------5------2---------------------------|
A---5------2------7------3------2---------------------------|
E---3------2------5------3------0---------------------------|


      G     D 
nadie puede negar que el dinero en el mundo
G     D 
puede comprar lo que pueden soñar
G     D         A           C       E 
deben amar sin embargo prefieren gastar


  E                             Am                   D 
  caro tiene mil problemas y su mami no la va a escuchar

  E                               Am                D 
  caro quiere hablar con ella su sicologo la escuchara


      G     D 
nadie puede negar que el dinero en el mundo
G     D 
puede comprar lo que pueden soñar
G     D         A           C       E 
deben amar sin embargo prefieren gastar


          A          D          E 
E---------------------2..--------4..--5..--4..--------------|
B----------2..--------3..--------5..--5..--5..--------------|
G----------2..--------2..--------4..--4..--4..--------------|
D----------2..----------------------------------------------|
A-----------------------------------------------------------|
E-----------------------------------------------------------|

          A          D                       E 
  y para que tener dinero y no poder tener amor
           A            D                       E 
  nunca sabran cuantos amigos son amigos de verdad


E 
  hay tanta gente equivocada en el
  A              D                       E 
  mundo que con dinero no pueden tener amor


      E                               Am      D 
FIN:  caro quiere un viaje a londres  UH  UH  UH    4vcs
Добавлено: 03.07.2015
Другие материалы по этой песне:
  • Аккорды и текст

Страница создана 03.07.2015
http://primanota.ru/rio/carol-quiere-un-viaje-a-londres-chords.htm
Привет, Гость.
Предлагаем пройти революционный курс по гитаре.
Подарок от PrimaNota.Ru, забирай!