PrimaNota.ru - самый крупный в мире бесплатный архив песенных текстов, аккордов, табулатур и нот


Rings Of Saturn - Invasion - таба, видео

Регистрация Запомнить меня
Войти через:  Facebook Google Twitter Vk Yandex Mail.ru

Rings Of Saturn - Invasion - таба, видео

Печатать
Просмотров: 111
THis is Invasion by Rings Of Saturn, probably my favorite band today:) Pretty fucking
intense shit, enjoy. This is for 6-string. i'll post the full 7-string tab later.

tuning: Drop A


intro. gtr. 1
|------------------------------------------------------------------------------|
|------------------------------------------------------------------------------|
|------------------------------------------------------------------------------|
|---12121212121212121212121288888888101010101010101088888888888888444444444444-|
|------------------------------------------------------------------------------|
|------------------------------------------------------------------------------|

gtr. 2 harmony
|-------------------------------------------------------|
|-------------------------------------------------------|
|-------------------------------------------------------|
|-888888888888885555555577777777555555555555111111111111|
|-------------------------------------------------------|
|-------------------------------------------------------|

|awsome solo which i canot tab for 6 string, however here is the sweep after it:)

sweep         T                          T
|-------8h12h13p12p8---------------7h11h12p11p7---------|
|-----10------------10------------9------------9--------|
|----9----------------9----------8--------------8-------|
|--10------------------10(x4)---9----------------9-(x4)-|
|12---------------------------11------------------------|
|-------------------------------------------------------|

sweep (cont.)  T                       T
|--------8h12h13p12p8------------8h12h17p12p8------|
|------10------------10--------10------------10----|
|-----9----------------9------9----------------9---|
|---10------------------10--10------------------1--|0(x2)
|-12----------------------12-----------------------|
|--------------------------------------------------|

sweep (cont.)T                   T
|------7h11h12p11p7--------7h11h16p11p7----|
|-----9------------9------9------------9---|
|----8--------------8----8--------------8--|
|---9----------------9--9------------------|9(x2)
|-11------------------11-------------------|
|------------------------------------------|

verse 1
|-------------------------------------------------|
|-------------------------------------------------|
|-------------------------------------------------|
|-------------------------------------------------|(x4)
|-4------3---5-5---6-6-5-4-----3---5-5------------|
|--5-4-5--4-3-3-4-5-3-----5-4-5-4-3-3-4-3-2-2-2-2-|
pm . . .  . . . . . .     . . . . . . . . . . . .

then... 
Добавлено: 28.11.2013
Другие материалы по этой песне:

Страница создана 23.04.2012
http://primanota.ru/rings-of-saturn/invasion-chords.htm
Привет, Гость.
Предлагаем пройти революционный курс по гитаре.
Подарок от PrimaNota.Ru, забирай!