PrimaNota.ru - самый крупный в мире бесплатный архив песенных текстов, аккордов, табулатур и нот


Ricky Nelson - Funny How Time Slips Away - бас-таба, видео

Регистрация Запомнить меня
Войти через:  Facebook Google Twitter Vk Yandex Mail.ru

Ricky Nelson - Funny How Time Slips Away - бас-таба, видео

Печатать
Просмотров: 27
Уроки эстрадного вокала в Санкт-Петербурге
Авторы музыки: Willie Nelson
Авторы текста: Willie Nelson
Tabbed by: 6METAL6BASSIST6
E-mail: petergriffinav@gmail.com

Tuning: EADG

G|------------------------------------------------------------------------------------------------|
D|------------------------------------------------------------------------------------------------| x2
A|5-------------------5---4-------------------4---2-------------------2-------------------2---4---|
E|------------------------------------------------------------------------5-----------------------|

0:13

G|------------------------------------------------------------------------------------------------|.
D|--------------------------------------------4---5-----------------------5-------------------7---|.
A|5-----------------------5---------------7-------------------------------------------------------|.
E|------------------------------------------------------------------------------------------------|.
                                                                                                   . x2
G|------------------------------------------------------------------------------------------------|.
D|------------------------------------------------------------------------------------------------|.
A|5-------------------5---4-------------------4---2-------------------2-------------------2---4---|.
E|------------------------------------------------------------------------5-----------------------|.

0:40

G|------------------------------------------------------------------------------------------------|
D|--------------------------------------------------------------------------------------------4---|
A|5-----------------------5-----------------------5-----------------------5---------------7-------|
E|------------------------------------------------------------------------------------------------|

G|------------------------------------------------------------------------------------------------|
D|5-----------------------5---------------4-------------------------------9-----------------------|
A|------------------------------------------------7-------------------------------------------7---|
E|------------------------------------------------------------------------------------------------|

0:52

G|------------------------------------------------------------------------------------------------|
D|7-----------------------------------------------7-------------------------------------------7---|
A|------------------------7-----------------------------------------------7-----------------------|
E|------------------------------------------------------------------------------------------------|

G|------------------------------------------------------------------------------------------------|
D|------------------------5-------------------5---------------------------------------------------|
A|5-------------------5---------------------------5-------------------5-------------------2---4---|
E|------------------------------------------------------------------------5-----------------------|

1:06

G|------------------------------------------------------------------------------------------------|.
D|--------------------------------------------4---5-----------------------5-------------------7---|.
A|5-----------------------5---------------7-------------------------------------------------------|.
E|------------------------------------------------------------------------------------------------|.
                                                                                                   . x2
G|------------------------------------------------------------------------------------------------|.
D|------------------------------------------------------------------------------------------------|.
A|5-------------------5---4-------------------4---2-------------------2-------------------2---4---|.
E|------------------------------------------------------------------------5-----------------------|.

1:32

G|------------------------------------------------------------------------------------------------|
D|--------------------------------------------------------------------------------------------4---|
A|5-----------------------5-----------------------5-----------------------5---------------7-------|
E|------------------------------------------------------------------------------------------------|

G|------------------------------------------------------------------------------------------------|
D|5-----------------------5---------------5-------------------------------9-----------------------|
A|------------------------------------------------7-------------------------------------------7---|
E|------------------------------------------------------------------------------------------------|

1:44

G|------------------------------------------------------------------------------------------------|
D|7-----------------------------------------------7-------------------------------------------7---|
A|------------------------7-----------------------------------------------7-----------------------|
E|------------------------------------------------------------------------------------------------|

G|------------------------------------------------------------------------------------------------|
D|------------------------5-------------------5---------------------------------------------------|
A|5-------------------5---------------------------5-------------------5-------------------2---4---|
E|------------------------------------------------------------------------5-----------------------|

1:57

G|------------------------------------------------------------------------------------------------|.
D|--------------------------------------------4---5-----------------------5-------------------7---|.
A|5-----------------------5---------------7-------------------------------------------------------|.
E|------------------------------------------------------------------------------------------------|.
                                                                                                   . x2
G|------------------------------------------------------------------------------------------------|.
D|------------------------------------------------------------------------------------------------|.
A|5-------------------5---4-------------------4---2-------------------2-------------------2---4---|.
E|------------------------------------------------------------------------5-----------------------|.

2:23

G|------------------------------------------------------------------------------------------------|
D|--------------------------------------------------------------------------------------------4---|
A|5-----------------------5-----------------------5-----------------------5---------------7-------|
E|------------------------------------------------------------------------------------------------|

G|------------------------------------------------------------------------------------------------|
D|5-----------------------5---------------5-------------------------------9-----------------------|
A|------------------------------------------------7-------------------------------------------7---|
E|------------------------------------------------------------------------------------------------|

2:36

G|------------------------------------------------------------------------------------------------|
D|7-----------------------------------------------7-------------------------------------------7---|
A|------------------------7-----------------------------------------------7-----------------------|
E|------------------------------------------------------------------------------------------------|

G|------------------------------------------------------------------------------------------------|
D|------------------------5-------------------7---------------------------------------------------|
A|5-------------------5---------------------------5-----------------------------------------------|
E|------------------------------------------------------------------------------------------------|
Добавлено: 18.10.2017
Другие материалы по этой песне:
  • Аккорды и текст

Страница создана 18.10.2017
http://primanota.ru/ricky-nelson/funny-how-time-slips-away-chords.htm
Привет, Гость.
Предлагаем пройти революционный курс по гитаре.
Подарок от PrimaNota.Ru, забирай!