PrimaNota.ru - самый крупный в мире бесплатный архив песенных текстов, аккордов, табулатур и нот


Rem - She Just Wants To Be - аккорды и текст, таба, бас-таба, видео

Регистрация Запомнить меня
Войти через:  Facebook Google Twitter Vk Yandex Mail.ru

Rem - She Just Wants To Be - аккорды и текст, таба, бас-таба, видео

Печатать
Просмотров: 252
She Just Wants To Be
Rem
		   hi i found this tab on another site so give credit to the guy who tabbed it not me.
ive made some changes to the solo to make it correct.
any questions or comments email me
nolightsnomusic@hotmail.com

intro

-3--0--------3--0----------0-
-------1-----------1---3---0-
---------------------------0-
---------------------------2-
---------------------------2-
---------------------------0-    do this twice then onto the verse

verse

"Its not that she walked away"


on the F chord u can either play whats above or pick up and down through the chord to the rhythm of the song 6 times. Like up down up down up down.

Then

	C        Em
e-----------|-------------|
b-------1---|------0------|
g---------0-|--------0----|
d-----2-----|----2--------|
a---3-------|--2----------|
e-----------|-------------|

You play the whole thing throught 4 times for the first verse then go to the pre chorus

pre chorus
"now is greater"

    F                      D sus 2
--------------      --------------
-----1--1-1-1-      ---3-----3---3
---2----2-2-2-      -----2---2---2
-3------3-3-3-      ---------0---0
--------------      --------------
--------------      --------------    X2

Chorus
This is the lead part that peter plays (saw him do it at glasto)
"She just wanst to be somewhere"
-----12------------ -----12-------------- ----12--------- -------15--------
--------13--------- ---------13---------- --------12----- ----------12-----
--14-------14------ 12---------12-------  12----------12- --------------12-
------------------- --------------------- --------------- ---12------------
------------------- --------------------- --------------- -----------------
------------------- --------------------- --------------- -----------------

She just wants to be
-----12------------ -----12-------------- ----12--------- -----------
--------13--------- ---------13---------- --------12----- ---12-12-12
--14-------14------ 12---------12-------  12----------12- ---12-12-12
------------------- --------------------- --------------- ---12-12-12
------------------- --------------------- --------------- -----------
------------------- --------------------- --------------- -----------

the chords over the chorus are:

Am C Em G
Am C G

2nd verse and chorus are the same as the 1st

leading into the solo theres a little fill
Fill
---------
---------
---------
---------
--2--3--2
---------

Solo

Its best if you have a reverb and disortion pedal here

Am	C		Am	C		Am		C
e---------------|------------|----------------------------------------------
b---------/10---|--8-----10--|------10---12--13--12--10--8--10--8--10--12---
g---7---9-------|------------|--9-------------------------------------------
d---------------|------------|----------------------------------------------
a---------------|------------|----------------------------------------------
e---------------|------------|----------------------------------------------
	G	Em		Am
e------------|------------|------------|
b-12'---13'--|--15'---17'-|-20-/-------| * ' = short notes
g------------|------------|------------|
d------------|------------|------------|
a------------|------------|------------|
e------------|------------|------------|

	Am	C		Am	C		Am		C
e------------|------------|----------7-|8-7---------|------------|------------|
b-------/10--|--8-----10--|------10----|----10------|--8-----10--|--8-----10--|
g------------|------------|--9---------|------------|------------|------------|
d------------|------------|------------|------------|------------|------------|
a------------|------------|------------|------------|------------|------------|
e------------|------------|------------|------------|------------|------------|

	G	Em		Am
e------------|------------|--------------|
b-12'---13'--|-12-12/10-10|--/-8--/10----|
g------------|------------|-----------9--|
d------------|------------|--------------|
a------------|------------|--------------|
e------------|------------|--------------|

Pre chorus

  F                      D sus 2
--------------      --------------
-----1--1-1-1-      ---3-----3---3
---2----2-2-2-      -----2---2---2
-3------3-3-3-      ---------0---0
--------------      --------------
--------------      --------------    X2

Chorus

-----12------------ -----12-------------- ----12--------- -------15--------
--------13--------- ---------13---------- --------12----- ----------12-----
--14-------14------ 12---------12-------  12----------12- --------------12-
------------------- --------------------- --------------- ---12------------
------------------- --------------------- --------------- -----------------
------------------- --------------------- --------------- -----------------

She just wants to be
-----12------------ -----12-------------- ----12--------- -----------
--------13--------- ---------13---------- --------12----- ---12-12-12
--14-------14------ 12---------12-------  12----------12- ---12-12-12
------------------- --------------------- --------------- ---12-12-12
------------------- --------------------- --------------- -----------
------------------- --------------------- --------------- -----------

Verse 3
    Am             F
e-------0---|--1--------------|--
b-------1---|--1----1--------1|--
g-------2---|--2--2------2---2|--
d-----2-----|--3------3------3|--
a---0-------|--3-------------3|--
e-----------|-----------------|--

The little fill you hear in the verse which is real cool is so simple it goes

---17----
-----17--
--------17
----------
---------
----------
	C        Em
e-----------|-------------|
b-------1---|------0------|
g---------0-|--------0----|
d-----2-----|----2--------|
a---3-------|--2----------|
e-----------|-------------|
Then its the outro solo
If you play this correctly with overdrive and stuff it sounds really good
by the way it starts in the middle of Em chord.

e--------------------------------------------12'--------------12----15---
b-------(12)-----------12-13''--13-13-12''--------13-12^13^12---12-------
g--------------------12--------------------------------------------------
d--14---------14--14-----------------------------------------------------
a------------------------------------------------------------------------
e------------------------------------------------------------------------

e-----12------15------12----12-------------------------12'---------------
b-13-----13--------13----13----12--12-13''--13-13-12''------13-12^13^12--
g------------------------------------------------------------------------
d------------------------------------------------------------------------
a------------------------------------------------------------------------
e------------------------------------------------------------------------

e--12-----15-------12------15-----15----15-------12--15------------------
b-----12-------13-----13-------13----13------13---------13-12-12-12-12-13
g------------------------------------------------------------------------
d------------------------------------------------------------------------
a------------------------------------------------------------------------
e------------------------------------------------------------------------

e-12----12-----------------12----12-----------------12----12-------------
b----13-----12-12-12-12-13----13-----12-12-12-12-13----13----12-12-12-12-
g------------------------------------------------------------------------
d------------------------------------------------------------------------
a------------------------------------------------------------------------
e------------------------------------------------------------------------

e----12-----12-----/
b-13----13------12-/
g-------------------
d-------------------
a-------------------
e-------------------
'' = vibrato
'  = short notes

Ending

-3--0--------3--0----------0-
-------1-----------1---3---0-
---------------------------0-
---------------------------2-
---------------------------2-
---------------------------0-

Then
-------------------------
---------------1-0-------
-------------2-----2---2-
-----------2---------2---
---------0---------------0
------3------------------

let that last note ring

if you want it to sound really good at the very end push your bridge down at 1 end so that it highers the tone and that sound really good.You can do it with your whammy bar if you want aswell but dont do overboard.

well thats it
email me with your comments
thanks     
Добавлено: 09.06.2013
Другие материалы по этой песне:

Страница создана 05.03.2012
http://primanota.ru/rem/she-just-wants-to-be-chords.htm
Привет, Гость.
Предлагаем пройти революционный курс по гитаре.
Подарок от PrimaNota.Ru, забирай!