PrimaNota.ru - самый крупный в мире бесплатный архив песенных текстов, аккордов, табулатур и нот


Rem - Revolution - аккорды и текст, таба, видео

Регистрация Запомнить меня
Войти через:  Facebook Google Twitter Vk Yandex Mail.ru

Rem - Revolution - аккорды и текст, таба, видео

Печатать
Просмотров: 211
Уроки эстрадного вокала в Санкт-Петербурге
Revolution
Rem



# http://www.uark.edu/~cbray/rem/
#
# If you have any corrections or additions to this file, please email them
# to cbray@comp.uark.edu
#

REVOLUTION


VERSION 1  by Rob Ballantyne (Z951535@corn.cso.niu.edu)

Opening and Verse Riff:

  (E) (Esus4) (Asus4) (A)     (A5)    (A5)  (B5)   
e------------------------------------------------------
b------------------------------------------------------
g--------------7-7----6--------2--2----2----4----4-----
d--------------7---7-----7-----2----2--2------4--4-----
a-------0------0---------------0-------0--2------2-----
E---0-4------------------------------------------------

...while the bass and overdriven guitar play:

  (E)  (Esus4)    (A)     (A5)     (B5) 
e---------------------------------------------
b---------------------------------------------
g---------------------------------------------
d-------------0-------0-----------------------
a----------0-------4--------0--0---2----------
E---0---4----------------0--------------------


These riffs are played twice; the chords are mere speculation. At Milan, on 
the second time through, the B5 is dropped; A5 is repeated in its place.


The chorus is three chords: B (224442), G (320033), A (x02220)


-----
VERSION 2  by John Gorenfeld (jwgorenfeld@ucdavis.edu)

verse riff:

E ----------------------------
b ---------3----2--0----------
g ---2h1--------------2-------
d -2-----2--------------------
a ----------------------------
e ----------------------------

The chorus is B, G, A.

----
VERSION 3 by  DaWhizz (dawhizz@aol.com)


Verse: You can play this in the chords E and A or this way:

----0-------------0-
-----0-0-2------2---
------0---4-2-4-----
---2----------------
--2-----------------
-0------------------

The Chorus is simply the chords B, G , A then B, G, F#

--------


Добавлено: 30.01.2014
Другие материалы по этой песне:
  • Аккорды и текст

Страница создана 18.06.2012
http://primanota.ru/rem/revolution-chords.htm
Привет, Гость.
Предлагаем пройти революционный курс по гитаре.
Подарок от PrimaNota.Ru, забирай!