PrimaNota.ru - самый крупный в мире бесплатный архив песенных текстов, аккордов, табулатур и нот


Rem - Perfect Circle Live - бас-таба, видео

Регистрация Запомнить меня
Войти через:  Facebook Google Twitter Vk Yandex Mail.ru

Rem - Perfect Circle Live - бас-таба, видео

Печатать
Просмотров: 74
This is a version of Perfect Circle as performed on REM's "Tourfilm" live video.


Verse 

G|----------7--------------------7--------------|
D|--0--0---7---5-3-5-3-5--0--0--7---5-5-7-7-5--*|
A|---------------------------------------------*|
E|----------------------------------------------|


Chorus
                    [4x]
G|---------------------|
D|-3-33-2232-0020--02-*|
A|---------------33---*|
E|---------------------|


Verse 

G|----------7--------------------7--------------|
D|--0--0---7---5-3-5-3-5--0--0--7---5-5-7-7-5--*|
A|---------------------------------------------*|
E|----------------------------------------------|


Chorus
                    [4x]
G|---------------------|------|
D|-3-33-2232-0020--02-*|--3---|
A|---------------33---*|------|
E|---------------------|------|

Verse 

G|----------7--------------------7--------------|
D|--0--0---7---5-3-5-3-5--0--0--7---5-5-7-7-5---|
A|----------------------------------------------|
E|----------------------------------------------|


Chorus
         [repeat to end]
G|---------------------|
D|-3-33-2232-0020--02-*|
A|---------------33---*|
E|---------------------|
Добавлено: 11.02.2016
Вам также может быть интересно:
Другие материалы по этой песне:
  • Аккорды и текст

Страница создана 11.02.2016
http://primanota.ru/rem/perfect-circle-live-chords.htm
Привет, Гость.
Предлагаем пройти революционный курс по гитаре.
Подарок от PrimaNota.Ru, забирай!