PrimaNota.ru - самый крупный в мире бесплатный архив песенных текстов, аккордов, табулатур и нот


Relient K - Santa Claus Is Thumbing To Town - текст песни, таба, видео

Регистрация Запомнить меня
Войти через:  Facebook Google Twitter Vk Yandex Mail.ru

Relient K - Santa Claus Is Thumbing To Town - текст песни, таба, видео

Печатать
Просмотров: 123
-------------------------------------------------------------------------------
                             Santa Claus Is Thumbing To Town - Relient K
-------------------------------------------------------------------------------
This is just the Rhythm. I'd say it's about 95% correct.

Tuning: Standard

INTRO
e|---------------------------------------------------------------------------|
B|---------------------------------------------------------------------------|
G|---------------------------------------------------------------------------|
D|--6--------6-6-6-6-6-6-6-6-2-2-2-2-2-2-2-2-6-6-6-6-6-6-6-6-2-2-2-2-2-2-2-2-|
A|--6--------6-6-6-6-6-6-6-6-2-2-2-2-2-2-2-2-6-6-6-6-6-6-6-6-2-2-2-2-2-2-2-2-|
E|--4--------4-4-4-4-4-4-4-4-0-0-0-0-0-0-0-0-4-4-4-4-4-4-4-4-0-0-0-0-0-0-0-0-|

e|---------------------------------------------------------------------------|
B|---------------------------------------------------------------------------|
G|------------------------------------4-4-4-4-9-9-9-9------------------------|
D|--6-6-6-6-6-6-6-6-6-2-2-2-2-2-2-2-2-x-x-x-x-x-x-x-x-4-4-4-4-4-4-4-4--------|
A|--6-6-6-6-6-6-6-6-6-2-2-2-2-2-2-2-2-2-2-2-2-7-7-7-7-4-4-4-4-4-4-4-4--------|
E|--4-4-4-4-4-4-4-4-4-0-0-0-0-0-0-0-0-----------------2-2-2-2-2-2-2-2--------|

VERSE (all elevens)
e|---------------------------------------------------------------------------|
B|---------------------------------------------------------------------------|
G|---------------------------------------------------------------------------|
D|----------99999999-----13----13----11---11---9--9--9--9--------------------|
A|-99999999-77777777-111111111111-99-9-99-9--777777777777--------------------|
E|-77777777------------------------------------------------------------------|
    ******* ******** ****  ****   **   **    ** ** ** ** 
e|---------------------------------------------------------------------------|
B|---------------------------------------------------------------------------|
G|---------------------------------------------------------------------------|
D|----------99999999-----13----13----11---11---9--9--9--9--------------------|
A|-99999999-77777777-111111111111-99-9-99-9--777777777777--------------------|
E|-77777777------------------------------------------------------------------|
    ******* ******** ****  ****   **   **    ** ** ** ** 

PRE-CHORUS
e|---------------------------------------------------------------------------|
B|---------------------------------------------------------------------------|
G|---------------------------------------------------------------------------|
D|-------6--------4--------2---------6--------4--------2-----xxxx------------|
A|----6--------4--------2---------6--------4--------2--------xxxx------------|
E|--4-------2--------0---------4--------2--------0-----------xxxx------------|

CHORUS
e|---------------------------------------------------------------------------|
B|---------------------------------------------------------------------------|
G|-44444444--------44444444--------------------------------------------------|
D|-44444444222222224444444422222222-777777774444-----------------------------|
A|-22222222222222222222222222222222-777777774444-----------------------------|
E|---------00000000--------00000000-555555552222-----------------------------|

e|---------------------------------------------------------------------------|
B|---------------------------------------------------------------------------|
G|-44444444--------44444444--------44444444--------44444444------------------|
D|-4444444422222222444444442222222244444444222222224444444422222222----------|
A|-2222222222222222222222222222222222222222222222222222222222222222----------|
E|---------00000000--------00000000--------00000000--------00000000----------|

e|---------------------------------------------------------------------------|
B|---------------------------------------------------------------------------|
G|---------------------------------------------------------------------------|
D|-----------------6666------------------------------------------------------|
A|-99999999777766664444777744444444------------------------------------------|
E|-7777666655554444----555522222222------------------------------------------|

INTRO
VERSE
PRE-CHORUS
CHORUS


ENDING
e|---------------------------------------------------------------------------|
B|---------------------------------------------------------------------------|
G|-------------------------------------------------44449999------------------|
D|-666666662222222266666666222222226666666622222222xxxxxxxx44444444----------|
A|-6666666622222222666666662222222266666666222222222222777744444444----------|
E|-444444440000000044444444000000004444444400000000--------22222222----------|


e|---------------------------------------------------------------------------|
B|---------------------------------------------------------------------------|
G|---------------4-----------------------------------------------------------|
D|-6------2------4-----------------------------------------------------------|
A|-6------2------2-----------------------------------------------------------|
E|-4------0------------------------------------------------------------------|



************************************

| /   slide up
| \   slide down
| h   hammer-on
| p   pull-off
| ~   vibrato
| +   harmonic
| x   Mute note
| b   Bend
| pb  Pre-bend
| br  Bend release
| pbr Pre-bend release
| brb Bend release bend

************************************
Добавлено: 02.04.2015
Другие материалы по этой песне:
  • Аккорды и текст

Страница создана 31.05.2012
http://primanota.ru/relient-k/santa-claus-is-thumbing-to-town-chords.htm
Привет, Гость.
Предлагаем пройти революционный курс по гитаре.
Подарок от PrimaNota.Ru, забирай!