PrimaNota.ru - самый крупный в мире бесплатный архив песенных текстов, аккордов, табулатур и нот


Relient K - Deck The Halls - текст песни, таба, видео

Регистрация Запомнить меня
Войти через:  Facebook Google Twitter Vk Yandex Mail.ru

Relient K - Deck The Halls - текст песни, таба, видео

Печатать
Просмотров: 329
Deck the Halls- Relient K

~=let ring

Intro: Guitar 1
Eb|--------------------------------------------------------------------------|
Bb|--------------------------------------------------------------------------|
Gb|--------------------------------------------------------------------------|
Db|--------------------------------------------------------------------------|
Ab|-3-5-6-3-5--3---------3-5-6-3-5--3--------3-5-6-3-5--3--------------------|
Eb|--------------6-5-6----------------6-5-6---------------6-5-6--------------|

Guitar 2
Eb|---------------------------------------------------------------------------|
Bb|---------------------------------------------------------------------------|
Gb|----------------------8~-------------------1212121212121212--10-1212-1414~-|
Db|-8~-------------------8~-------------------1212121212121212--10-1212-1414~-|
Ab|-8~-------------------6~-------------------1010101010101010--8--1010-1212~-|
Eb|-6~------------------------------------------------------------------------|
                                                     ^                    ^
                                                      These are 10s and 12s

Guitar 1
Eb|--------------------------------------------------------------------------|
Bb|--------------------------------------------------------------------10----|
Gb|--------------------------------------------------------------------x-----|
Db|--------------------------------------------------------------------7-----|
Ab|-3-5-6-3-5--3---------3-5-6-3-5--3---------3-5-6-3-5-3--3-----------------|
Eb|--------------6-5-6----------------6-5-6------------------6-5-6-----------|

Guitar 2
Eb|--------------------------------------------------------------------------|
Bb|--------------------------------------------------------------------------|
Gb|-10~------------------11~------------------12~----------------------10~---|
Db|-10~------------------11~------------------12~----------------------10~---|
Ab|-8~-------------------9~-------------------10~----------------------8~----|
Eb|--------------------------------------------------------------------------|

Chorus:
Guitar 1
Eb|--------------------------------------------------------------------------|
Bb|--------------------------------------------------------------------------|
Gb|-3~--------------3~-------------------------------------------------------|
Db|-3~--------------3~---------------3-3-3-3-8-8-8-8-8-8-5-5-3-3-3-3---------|
Ab|-1~--------------1~---------------3-3-3-3-8-8-8-8-8-8-5-5-3-3-3-3---------|
Eb|----------------------------------1-1-1-1-6-6-6-6-6-6-3-3-1-1-1-1---------|
Deck the halls... 'Tis the season...Don we now...

Guitar 2
Eb|--------------------------------------------------------------------------|
Bb|-----------------11111111111111111111111111111111-(8x)------------8~------|
Gb|-----------------x-x-x-x-x-x-x-x-x-x-x-x-x-x-x-x------------------x~------|
Ab|-----------------8-8-8-8-8-8-8-8-8-8-8-8-8-8-8-8------------------5~------|
Db|--------------------------------------------------------------------------|
Eb|--------------------------------------------------------------------------|

Guitar 1
Eb|--------------------------------------------------------------------------|
Bb|--------------------------------------------------------------------------|
Gb|-3~--------------3~-------3~----------------------------------------------|
Db|-3~--------------3~-5~-3~-3~----------------------------------------------|
Ab|-1~--------------1~-5~-3~-1~---3-5-6-3-5--3-------------------------------|
Eb|--------------------3~-1~-------------------6-5-6-------------------------|
Troll the ancient...

Guitar 2
Eb|-6~-----------------------------------------------------------------------|
Bb|-x~-----------------------------------------------------------------------|
Gb|-3~-----------------------------------------------------------------------|
Db|-------------------------------7-9-10-7-9--7-5-4-5------------------------|
Ab|--------------------------------------------------------------------------|
Eb|--------------------------------------------------------------------------|

Bridge:
Guitar 1
Eb|-----------------------------------------------------------------------------|
Bb|-----------------------------------------------------------------------------|
Gb|-----------------------------------------------------------------------------|
Db|-----------------------------------------------------------------------------|
Ab|-3-5-6-3-5--3---------3-5-6-3-5--3-------3-5-6-3-5--3------------------------|
Eb|--------------6-5-6----------------6-5-6--------------6-5-6------------------|

Guitar 2
Eb|---------------------------------------------------------------------------|
Bb|-111111111111111111111111111111111111111111111111111111111111--------------|
Gb|-x-x-x-x-x-x-x-x-x-x-x-x-x-x-x-x-x-x-x-x-x-x-x-x-x-x-x-x-x-x-10-1212-1414~-|
Db|-8-8-8-8-8-8-8-8-8-8-8-8-8-8-8-8-8-8-8-8-8-8-8-8-8-8-8-8-8-8-10-1212-1414~-|
Ab|-------------------------------------------------------------8--1010-1212~-|
Eb|---------------------------------------------------------------------------|

Guitar 1
Eb|--------------------------------------------------------------------------|
Bb|--------------------------------------------------------------------------|
Gb|--------------------------------------------------------------3~----------|
Db|--------------------------------------------------------------3~----------|
Ab|-3-5-6-3-5--3--------3-5-6-3-5--3--------3-5-6-3-5--3---------1~----------|
Eb|--------------6-5-6---------------6-5-6---------------6-5-6---------------|
Fa la la...

Guitar 2

It's hard to hear it over the singing so I didn't put anything...you can fill
it with the 3x6 riff if you want.


The last part of the song is just a variation on the piano I think.


Hope you like it.
Добавлено: 20.03.2012
Другие материалы по этой песне:

Страница создана 20.03.2012
http://primanota.ru/relient-k/deck-the-halls-chords.htm
Привет, Гость.
Предлагаем пройти революционный курс по гитаре.
Подарок от PrimaNota.Ru, забирай!