PrimaNota.ru - самый крупный в мире бесплатный архив песенных текстов, аккордов, табулатур и нот


Relient K - College Kids - аккорды и текст, таба, бас-таба, видео

Регистрация Запомнить меня
Войти через:  Facebook Google Twitter Vk Yandex Mail.ru

Relient K - College Kids - аккорды и текст, таба, бас-таба, видео

Печатать
Просмотров: 196
College Kids
Relient K
		   Someone, Please save us, us college kids.......
e|---------------------------------------------------------------------------|
B|---------------------------------------------------------------------------|
G|-5-------------------------------------------------------------------------|
D|-5----77777777--33333333---------------------------------------------------|
A|-3----77777777--33333333---------------------------------------------------|
E|------55555555--11111111---------------------------------------------------|

But in the end i questioned why i did.......
e|-----------------3--------3--------3---------------------------------------|
B|---------x5h6p5p3-x5h6p5p3-x5h6p5p3-x5h6p5p3x3h5p3-------------------------|
G|---------------------------------------------------------------------------|
D|--5------------------------------------------------------------------------|
A|--5------------------------------------------------------------------------|
E|--3------------------------------------------------------------------------|

Im bored, im starving, im flat broke........
e|---------------------------------------------------------------------------|
B|---------------------------------------------------------------------------|
G|--55555555-----------------------------------------------------------------|
D|--55555555-77777777-33333333-----------------------------------------------|
A|--33333333-77777777-33333333-----------------------------------------------|
E|-----------55555555-11111111-----------------------------------------------|

Not for me, not for me, call it torture.........
e|---------------------------------------------------------------------------|
B|---------------------------------------------------------------------------|
G|-5555555555555555----------(PALM MUTE)-------------------------------------|
D|-5555555555555555-33333333-55555555----------------------------------------|
A|-3333333333333333-33333333-55555555----------------------------------------|
E|------------------11111111-33333333----------------------------------------|

Dont get excited she'll say no without a doubt you see......
e|---------------------------------------------------------------------------|
B|--55-----66-55----3-0------------------------------------------------------|
G|----00-22------00----------------------------------------------------------|
D|---------------------------------------------------------------------------|
A|---------------------------------------------------------------------------|
E|---------------------------------------------------------------------------|

And the slow part is just the bass.     
Добавлено: 14.06.2013
Другие материалы по этой песне:

Страница создана 03.03.2012
http://primanota.ru/relient-k/college-kids-chords.htm
Привет, Гость.
Предлагаем пройти революционный курс по гитаре.
Подарок от PrimaNota.Ru, забирай!