PrimaNota.ru - самый крупный в мире бесплатный архив песенных текстов, аккордов, табулатур и нот


Red Hot Chili Peppers - Cant Wait - таба, видео

Регистрация Запомнить меня
Войти через:  Facebook Google Twitter Vk Yandex Mail.ru

Red Hot Chili Peppers - Cant Wait - таба, видео

Печатать
Просмотров: 141
Band: Red Hot Chili Peppers
Song: Can't Wait
Album: By The Way
Tabbed By: Robby Herbst 7-22-02 (herbie3513@aol.com)

Standard Tuning

This is a great song by a great band. Enjoy!

Intro:  
(with drums)
e:-----------------------
B:-----------------------
G:-----------------------     (Play this 8 times)
D:-----------------------
A:-5/7-5/7-5/7-5/7-5/7---
E:----------------------- 


Main Verse:
e:--------------------------
B:--------------------------
G:-----7-9-------7-7/9------
D:--------------------------
A:-7-7-----7-7-7-------7-7--
E:--------------------------

e:--------------------------
B:--------------------------
G:---7-9--------7-7/9-------
D:-0-----0-0-0---------0-0--
A:--------------------------
E:--------------------------

e:--------------------------
B:--------------------------
G:---7-9--------7-7/9-------
D:--------------------------
A:--------------------------
E:-7-----7-7-7---------7-7--

e:--------------------------
B:--------------------------
G:---7-9--------7-7/9-------
D:--------------------------
A:--------------------------
E:-8-----8-8-8---------8-8--    (Play 5 times.)


Chorus:
    
  The world I love..  
e:-----2------2------
B:-----2------2------
G:-----0------0------
D:-----0------0------
A:-----2------2------
E:-----3------3------

  The tears I drop..
e:-----2------2------
B:-----3------3------
G:-----2------2------
D:-----0------0------
A:-------------------
E:-------------------

    To be part of..
e:-------------------
B:-------------------
G:-----4------4------
D:-----4------4------
A:-----2------2------
E:-------------------

  The wave can't stop..
e:-------------------
B:-----1------1------
G:-----0------0------
D:-----2------2------   (For all other verses of the
A:-----3------3------    chorus play the same chords
E:-----0------0------    the same way.) (Play 4 times.)

*Main verse*   (Play 4 times.)
*Chorus*       (Play 4 times.)

After second chorus play:
e:----------------------------------------
B:----------------------------------------
G:-9-9-9-9--7-7-7-7-----------------------
D:-9-9-9-9--7-7-7-7--9-9-9-9--10-10-10-10-
A:-7-7-7-7--5-5-5-5--9-9-9-9--10-10-10-10-
E:-------------------7-7-7-7---8--8--8--8-
                (Play this 4 times)

Solo:
e:--12----12--10----10--7----7----
B:-----------------------------8--
G:--------------------------------
D:--------------------------------
A:--------------------------------
E:--------------------------------

e:--12---14*--10---12*--7---10*--------- (*means you bend
B:------------------------------8/10/8--   the note.)
G:--------------------------------------
D:--------------------------------------
A:--------------------------------------
E:--------------------------------------

*Main verse*  (Play 4 times.)



If you do not have this CD I strongly suggest that you
buy it as soon as possible. Later.

     
Добавлено: 27.08.2013
Другие материалы по этой песне:
  • Аккорды и текст

Страница создана 27.08.2013
http://primanota.ru/red-hot-chili-peppers/cant-wait-chords.htm
Привет, Гость.
Предлагаем пройти революционный курс по гитаре.
Подарок от PrimaNota.Ru, забирай!