PrimaNota.ru - самый крупный в мире бесплатный архив песенных текстов, аккордов, табулатур и нот


Red Hot Chili Peppers - Scar Tissue2 - таба, видео

Регистрация Запомнить меня
Войти через:  Facebook Google Twitter Vk Yandex Mail.ru

Red Hot Chili Peppers - Scar Tissue2 - таба, видео

Печатать
Просмотров: 208
Уроки эстрадного вокала в Санкт-Петербурге
		   Tuning: E A D G B E
 
 
INTRO
|----5----5---5----5-------------------------------|
|---------------------5--5/6--6----6---6----6\5----|
|--------------------------------------------------|
|-3-----3---3---3----------------0---0---0---------|
|---------------------3--3/5---------------------3-|
|--------------------------------------------------|
 
|----5----5---5---5---5----------------------------|
|-----------------------5-5/6--------------8p6-8p6-|
|--------------------------------------------------|
|-3-----3---3---3---3------------------------------|
|-----------------------3-3/5----------------------|
|--------------------------------------------------|
 
 
VERSE - Play intro with slight variations
 
 
CHORUS
 
Here's the shapes I use although I think it's actually just a regular F and Dm 
|-5----5----|
|-6----6----|
|-5----7----|
|-----------|
|-----------|
|-----------|
 
 
VERSE 2 - Same
 
 
CHORUS 2 - Same
 
 
SOLO
 
Rhythm
|-1--------0----1-----|
|-3--------1----3-----|
|-2--------0----2-----|
|-0--------2----0---2-|
|----------3----------|
|---------------------|
 
Lead w/slide
|------------------------------------------------|
|-13\10~~--10\8-8~~--8/10-10~~--10~~/12~~/13~~~~-|
|------------------------------------------------|
|------------------------------------------------|
|------------------------------------------------|
|------------------------------------------------|
 
 
VERSE 3 - Same
 
 
CHORUS 3 - Same
 
 
VERSE 4 - Same
 
 
CHORUS 4 - Same
 
 
SOLO 2
 
Rhythm
|-1--------0----1----|
|-3--------1----3----|
|-2--------0----2----|
|-0--------2----0----|
|----------3---------|
|--------------------|
 
|-1--------0----1-----|
|-3--------1----3-----|
|-2--------0----2-----|
|-0--------2----0---2-|
|----------3----------|
|---------------------|
 
 
Lead w/slide
|----------------------------------------------------
|-(13)/15~~--15\13~~-13\10~~--10\8-8~~--13\10~~-10~~-
|----------------------------------------------------
|----------------------------------------------------
|----------------------------------------------------
|----------------------------------------------------
 
-----------------------------------------------------------------------| -/15~~--17-13\10-10~~--/13~~\8-8~~--13\10-10~~--15/17~~-17/18~~-18~~~~-| -----------------------------------------------------------------------| -----------------------------------------------------------------------| -----------------------------------------------------------------------| -----------------------------------------------------------------------| 
 
 
VERSE 5 - Same
 
 
CHORUS 5 - Same
 
 
SOLO 3/OUTRO
 
 
Rhythm
                  x4
|-1--------0----1----|
|-3--------1----3----|
|-2--------0----2----|
|-0--------2----0----|
|----------3---------|
|--------------------|
 
 
Lead w/slide
|----------------------------------------------------
|-20/22~~--22\20-20~~--20/22~~\17~~--17/18~~-18\15~~-
|----------------------------------------------------
|----------------------------------------------------
|----------------------------------------------------
|----------------------------------------------------
 
----------------------------------------------------------------- 
-13/15-15\13-13/15-15~~--15\13-13\10-10~~--/13~~\8~~--/13~~\10~~- ----------------------------------------------------------------- 
----------------------------------------------------------------- 
----------------------------------------------------------------- 
----------------------------------------------------------------- 
 
------------------------------------------------------------
------------------------------------------------------------
-7/9\7-7/14~~--14~~-14~~-14~~--7/9\7~~--/9~~\5~~--5/7~~\2~~-
------------------------------------------------------------
------------------------------------------------------------
------------------------------------------------------------
 
-------------------------------------------------------------|
-/10~~--18\17-17~~--\13/15~~\10~~--/13~~\8~~~~~~~~(8)/10~~~~-|
-------------------------------------------------------------|
-------------------------------------------------------------|
-------------------------------------------------------------|
-------------------------------------------------------------|
 
     
Добавлено: 20.06.2013
Другие материалы по этой песне:
  • Аккорды и текст

Страница создана 20.06.2013
http://primanota.ru/red-hot-chili-peppers/scar-tissue2-chords.htm
Привет, Гость.
Предлагаем пройти революционный курс по гитаре.
Подарок от PrimaNota.Ru, забирай!