PrimaNota.ru - самый крупный в мире бесплатный архив песенных текстов, аккордов, табулатур и нот


Red Hot Chili Peppers - Backwoods - аккорды и текст, таба, бас-таба, видео

Регистрация Запомнить меня
Войти через:  Facebook Google Twitter Vk Yandex Mail.ru

Red Hot Chili Peppers - Backwoods - аккорды и текст, таба, бас-таба, видео

Печатать
Просмотров: 256
Авторы: Flea, Jack Irons, Anthony Kiedis, Hillel Slovak

Backwoods
Red Hot Chili Peppers
Bass
Bass figure 1:
G|-----------------------|-----------------------|
D|-----4--4--4--4---4--4-|-----4--4--4--4---4--4-|
A|-----------------------|-----------------------|
E|-2-x------------2------|-2-x------------2------|

Chorus:
G|--------------------------|-------------------------|
D|-------2--------7-------9-|-------2--------7------9-|
A|--------------------------|-------------------------|
E|-2--2----2--5-5----7-7----|-2--2----2--5-5----7-7---|

Interlude:
G|---------------------------------|
D|---------------------------------|
A|---------------------------------|
E|-5h7-5h7-5h7-5h7-5h7-5h7-5h7-5h7-|

E|---------------------------------|
B|---------------------------------|
G|-0h2-0h2-0h2-0h2-0h2-0h2-0h2-0h2-|
D|---------------------------------|
  Can also be played this way

Bridge:
G|-------------------------|-----------------------------------|
D|-------------------------|-----------------------------------|
A|-------------------------|-----------------------------------|
E|-2-x-2-2-2-2-2-x-2-2-2-2-|-2--x-2--2--x-2--0/2-2--0/2-2--2-2-|

G|-------------------------|-----------------------------------|
D|-------------------------|--------------4------4---------2h4-|
A|-------------------------|-----------------------------------|
E|-2-x-2-2-2-2-2-x-2-2-2-2-|-2--x-2--2--x---2--2---2--x--2-----|
Played with varitions. Frequently used variations showed below.

G|-------------------------------|-----------------------------|
D|-----------4--4----------------|-----------------------------|
A|-------------------------------|-----------------------------|
E|-2--x-2--2--2---x--2-x--0--2-2-|-2/5/75/82/12-2--x-2--2--x-2-|

G|-----------4---------------|---------------------------------|
D|---------4-----------------|-------------------------------4-|
A|-------------x-------------|---------x--0--2-----------------|
E|-2-x-2-2-------2-x-2-2-x-2-|-2-x-2-2----------2--x-2-2--2----|

Ending:
G|------------------------|------------------------|-----------|
D|-------2--------7-----9-|-------2--------7-----9-|-----------|
A|------------------------|------------------------|------2----|
E|-2--2----2--5-5---7-7---|-2--2----2--5-5---7-7---|-2--2----2-|
Добавлено: 13.12.2013
Другие материалы по этой песне:

Страница создана 22.02.2012
http://primanota.ru/red-hot-chili-peppers/backwoods-chords.htm
Привет, Гость.
Предлагаем пройти революционный курс по гитаре.
Подарок от PrimaNota.Ru, забирай!