PrimaNota.ru - самый крупный в мире бесплатный архив песенных текстов, аккордов, табулатур и нот


Red Hot Chili Peppers - Behind The Sun - аккорды и текст, таба, бас-таба, видео

Регистрация Запомнить меня
Войти через:  Facebook Google Twitter Vk Yandex Mail.ru

Red Hot Chili Peppers - Behind The Sun - аккорды и текст, таба, бас-таба, видео

Печатать
Просмотров: 290
Уроки эстрадного вокала в Санкт-Петербурге
Авторы: Michael Beinhorn, Jack Irons, Anthony Kiedis, Michael Peter Balzary, Hillel Slovak

Behind The Sun
Red Hot Chili Peppers
N.C.        D                 A
4/4
 Gtrs I, II
E|---------||----------------------------------------|
B|---------||o---------------------------------------|
G|---------||--12s11-9--9----------------9-(9)-9-----|
D|---------||---0----0-(0)-0-9-7--9s11---9-(9)-9-----|
A|---------||o---------------0-0--0----0-0-(0)-0-9-7-|
E|---------||------------------------------------0-0-|

 Gtr III
E|---------||--12------12--------12--------12--------|
B|---------||o---------------------------------------|
G|---------||---9-------9---------9---------9--------|
D|---------||----------------------------------------|
A|---------||o---------------------------------------|
E|---------||----------------------------------------|
                                                     1.
   E                  A5               E9
E|-----------------------------------|--------7-(7)-|-(7)-----||
B|-----------------------------------|--------7-(7)-|-(7)----o||
G|-----------------------------------|--------7-(7)-|-(7)-----||
D|-----------------------------------|--------6-(6)-|-(6)-----||
A|--9s11-11-9-(9)-9-7------------5h7-|--------7-(7)-|-(7)----o||
E|--0-----0-0-(0)-0-0--9--7--5h7-----|--0-0-0-------|---------||

E|-12---------12------12----12-------|-12-----7-(7)-|-(7)-----||
B|-----------------------------------|--------7-(7)-|-(7)----o||
G|--9----------9-------9-----9-------|--9-----7-(7)-|-(7)-----||
D|-----------------------------------|--------6-(6)-|-(6)-----||
A|-----------------------------------|--------------|--------o||
E|-----------------------------------|--------------|---------||

  Gtr IV
E|-----------------------------------|--------|---------------||
B|-----------------------------------|--------|--------------o||
G|-------------------------------7h9-|--------|---------------||
D|--------------------11--9--7h9-----|--------|---------------||
A|-----------------------------------|--------|-----7-(7)----o||
E|-----------------------------------|--------|--0------------||

                       Verse
   2.
   E9                    E9                      E6
E|-(7)----------------||-----------7-------------9-|
B|-(7)----------------||-------7---7-------------9-|
G|-(7)----------------||-------7---7-------------9-|
D|-(6)----------------||-------6---6-------------7-|
A|-(7)----------------||-------7---7---------------|
E|--------------------||---0-0---------0-0-0-0-0---|

E|-(7)----------------||-----7---7-----7---7---7s9-|
B|-(7)----------------||-8h9---------9-------------|
G|-(7)----------------||---------------------------|
D|-(6)----------------||---------------------------|
A|--------------------||---------------------------|
E|--------------------||---------------------------|

E|--0-----------------|
B|-----0-(0)--(0)-----|
G|------------------9-|
D|--------------------|
A|--------------------|
E|--------------------|

   E9                     E6
E|-------7--7-7-----------9----|
B|-------7--7-7-----------9----|
G|-------7--7-7-----------9----|
D|-------6--6-6-----------7----|
A|-------7--7-7----------------|
E|-0-0-0--------0-0-0-0-0------|

E|-----------------------------|
B|-----------------------------|
G|--------------------------9--|
D|-----------------------------|
A|-----------------------------|
E|-----------------------------|

   E9                      E6  E9
E|---------7---------------9-|-------7--7-7------------------|
B|-----7---7---------------9-|-------7--7-7------------------|
G|-----7---7---------------9-|-------7--7-7-----9h11-11-11-9-|
D|-----6---6---------------7-|-------6--6-6-----9-----9--9-9-|
A|-----7---7-----------------|-------7--7-7------------------|
E|-0-0-----------0-0-0-0-0---|-0-0-0--------0-0--------------|

E|---7---7---9---------------|-------------------------------|
B|-9-----------7h8---8p7-----|-------------------------------|
G|-----------------------9---|-----------------------------9-|
D|---------------------------|-------------------------------|
A|---------------------------|-------------------------------|
E|---------------------------|-------------------------------|

                           E6
E|-----------7-------------9--|
B|-------7---7-------------9--|
G|-------7---7-------------9--|
D|-------6---6-------------7--|
A|-------7---7----------------|
E|---0-0---------0-0-0-0-0----|

E|-----7---7-----7---7---7s9--|
B|-8h9---------9--------------|
G|----------------------------|
D|----------------------------|
A|----------------------------|
E|----------------------------|

   E9                     E6  E9                     E6
E|-------7--7-7-----------9-|----------7-------------9-|
B|-------7--7-7-----------9-|------7---7-------------9-|
G|-------7--7-7-----------9-|------7---7-------------9-|
D|-------6--6-6-----------7-|------6---6-------------7-|
A|-------7--7-7-------------|------7---7---------------|
E|-0-0-0--------0-0-0-0-0---|--0-0---------0-0-0-0-0---|

E|--------------------------|-12-9---7-----------------|
B|--------------------------|------------8-8---8p7-----|
G|--------------------------|----------------------9---|
D|--------------------------|--------------------------|
A|--------------------------|--------------------------|
E|--------------------------|--------------------------|

   E9
E|-------7--7-7--------------------||
B|-------7--7-7--------------------||
G|-------7--7-7-----9h11-11-11-9---||
D|-------6--6-6-----9-----9--9-9---||
A|-------7--7-7--------------------||
E|-0-0-0--------0-0----------------||

 Verse InterVerse Continues
   N.C.       E9                      E6
E|---------||-----------7-------------9-|
B|---------||-------7---7-------------9-|
G|---------||-------7---7-------------9-|
D|---------||-------6---6-------------7-|
A|---------||-------7---7---------------|
E|---------||---0-0---------0-0-0-0-0---|

E|---------||-----7---7-----7---7---7s9-|
B|---------||-8h9---------9-------------|
G|---------||---------------------------|
D|---------||---------------------------|
A|---------||---------------------------|
E|---------||---------------------------|

   E9                     E6    E9                      E6
E|-------7--7-7-----------9---|---------7---------------9-|
B|-------7--7-7-----------9---|-----7---7---------------9-|
G|-------7--7-7-----------9---|-----7---7---------------9-|
D|-------6--6-6-----------7---|-----6---6---------------7-|
A|-------7--7-7---------------|-----7---7-----------------|
E|-0-0-0--------0-0-0-0-0-----|-0-0-----------0-0-0-0-0---|

E|----------------------------|---7---7---7---------------|
B|----------------------------|-9-----------7h8---8p7-----|
G|--------------------------9-|-----------------------9---|
D|----------------------------|---------------------------|
A|----------------------------|---------------------------|
E|----------------------------|---------------------------|

   E9
E|-------7--7-7------------------||
B|-------7--7-7------------------||
G|-------7--7-7-----9h11-11-11-9-||
D|-------6--6-6-----9-----9--9-9-||
A|-------7--7-7------------------||
E|-0-0-0--------0-0--------------||

 Chorus
   D                 A
E|---------------------------------------|
B|---------------------------------------|
G|-12s11-9--9----------------9-(9)-9-----|
D|--0----0-(0)-0-9-7--9s11---9-(9)-9-----|
A|---------------0-0--0----0-0-(0)-0-9-7-|
E|-----------------------------------0-0-|

E|-12------12--------12--------12--------|
B|---------------------------------------|
G|--9-------9---------9---------9--------|
D|---------------------------------------|
A|---------------------------------------|
E|---------------------------------------|

   E                  A5               E9
E|-----------------------------------|--------7-(7)----|
B|-----------------------------------|--------7-(7)----|
G|-----------------------------------|--------7-(7)----|
D|-----------------------------------|--------6-(6)----|
A|--9s11-11-9-(9)-9-7------------5h7-|--------7-(7)----|
E|--0-----0-0-(0)-0-0--9--7--5h7-----|--0-0-0----------|

E|-12---------12------12----12-------|-12-----7-(7)----|
B|-----------------------------------|--------7-(7)----|
G|--9----------9-------9-----9-------|--9-----7-(7)----|
D|-----------------------------------|--------6-(6)----|
A|-----------------------------------|-----------------|
E|-----------------------------------|-----------------|

E|-----------------------------------|
B|-----------------------------------|
G|-------------------------------7h9-|
D|--------------------11--9--7h9-----|
A|-----------------------------------|
E|-----------------------------------|

   E9           D                 A
E|-(7)--------|---------------------------------------|
B|-(7)--------|---------------------------------------|
G|-(7)--------|-12s11-9--9----------------9-(9)-9-----|
D|-(6)--------|--0----0-(0)-0-9-7--9s11---9-(9)-9-----|
A|-(7)--------|---------------0-0--0----0-0-(0)-0-9-7-|
E|------------|-----------------------------------0-0-|

E|-(7)--------|-12------12--------12--------12--------|
B|-(7)--------|---------------------------------------|
G|-(7)--------|--9-------9---------9---------9--------|
D|-(6)--------|---------------------------------------|
A|------------|---------------------------------------|
E|------------|---------------------------------------|

   E                  A5
E|------------------------------------|
B|------------------------------------|
G|------------------------------------|
D|------------------------------------|
A|--9s11-11-9-(9)-9-7------------5h7--|
E|--0-----0-0-(0)-0-0--9--7--5h7------|

E|-12---------12------12----12--------|
B|------------------------------------|
G|--9----------9-------9-----9--------|
D|------------------------------------|
A|------------------------------------|
E|------------------------------------|

E|------------------------------------|
B|------------------------------------|
G|-------------------------------7h9--|
D|--------------------11--9--7h9------|
A|------------------------------------|
E|------------------------------------|

   E9                    D                 A
E|--------7-(7)--|-(7)-|---------------------------------------|
B|--------7-(7)--|-(7)-|---------------------------------------|
G|--------7-(7)--|-(7)-|-12s11-9--9----------------9-(9)-9-----|
D|--------6-(6)--|-(6)-|--0----0-(0)-0-9-7--9s11---9-(9)-9-----|
A|--------7-(7)--|-(7)-|---------------0-0--0----0-0-(0)-0-9-7-|
E|--0-0-0--------|-----|-----------------------------------0-0-|

E|-12-----7-(7)--|-(7)-|-12------12--------12--------12--------|
B|--------7-(7)--|-(7)-|---------------------------------------|
G|--9-----7-(7)--|-(7)-|--9-------9---------9---------9--------|
D|--------6-(6)--|-(6)-|---------------------------------------|
A|---------------|-----|---------------------------------------|
E|---------------|-----|---------------------------------------|

E|-----------------|
B|-----------------|
G|-----------------|
D|--0h2------------|
A|-----------------|
E|------0-(0)------|

    E                  A5
E|-----------------------------------|
B|-----------------------------------|
G|-----------------------------------|
D|-----------------------------------|
A|--9s11-11-9-(9)-9-7------------5h7-|
E|--0-----0-0-(0)-0-0--9--7--5h7-----|

E|-12---------12------12----12-------|
B|-----------------------------------|
G|--9----------9-------9-----9-------|
D|-----------------------------------|
A|-----------------------------------|
E|-----------------------------------|

E|-----------------------------------|
B|-----------------------------------|
G|-------------------------------7h9-|
D|--------------------11--9--7h9-----|
A|-----------------------------------|
E|-----------------------------------|

   E9
E|--------7-(7)------|-(7)---|
B|--------7-(7)------|-(7)---|
G|--------7-(7)------|-(7)---|
D|--------6-(6)------|-(6)---|
A|--------7-(7)------|-(7)---|
E|--0-0-0------------|-------|

E|-12-----7-(7)------|-(7)---|
B|--------7-(7)------|-(7)---|
G|--9-----7-(7)------|-(7)---|
D|--------6-(6)------|-(6)---|
A|-------------------|-------|
E|-------------------|-------|

E|---------0---0----------|
B|-----3-3---3---3s5-(5)--|
G|------------------------|
D|------------------------|
A|------------------------|
E|------------------------|

   D                 A
E|---------------------------------------|
B|---------------------------------------|
G|-12s11-9--9----------------9-(9)-9-----|
D|--0----0-(0)-0-9-7--9s11---9-(9)-9-----|
A|---------------0-0--0----0-0-(0)-0-9-7-|
E|-----------------------------------0-0-|

E|-12------12--------12--------12--------|
B|---------------------------------------|
G|--9-------9---------9---------9--------|
D|---------------------------------------|
A|---------------------------------------|
E|---------------------------------------|

   E                  A5               E9
E|-----------------------------------|--------7-(7)----|
B|-----------------------------------|--------7-(7)----|
G|-----------------------------------|--------7-(7)----|
D|-----------------------------------|--------6-(6)----|
A|--9s11-11-9-(9)-9-7------------5h7-|--------7-(7)----|
E|--0-----0-0-(0)-0-0--9--7--5h7-----|--0-0-0----------|

E|-12---------12------12----12-------|-12-----7-(7)----|
B|-----------------------------------|--------7-(7)----|
G|--9----------9-------9-----9-------|--9-----7-(7)----|
D|-----------------------------------|--------6-(6)----|
A|-----------------------------------|-----------------|
E|-----------------------------------|-----------------|

E|-----------------------------------|
B|-----------------------------------|
G|-------------------------------7h9-|
D|--------------------11--9--7h9-----|
A|-----------------------------------|
E|-----------------------------------|

                       Verse
   E9                    E9                      E6
E|-(7)----------------||-----------7-------------9-|
B|-(7)----------------||-------7---7-------------9-|
G|-(7)----------------||-------7---7-------------9-|
D|-(6)----------------||-------6---6-------------7-|
A|-(7)----------------||-------7---7---------------|
E|--------------------||---0-0---------0-0-0-0-0---|

E|-(7)----------------||-----7---7-----7---7---7s9-|
B|-(7)----------------||-8h9---------9-------------|
G|-(7)----------------||---------------------------|
D|-(6)----------------||---------------------------|
A|--------------------||---------------------------|
E|--------------------||---------------------------|

       TP TP   TP
E|-----0-(0)--(0)-----|
B|--------------------|
G|------------------9-|
D|--------------------|
A|--------------------|
E|--------------------|

   E9                     E6
E|-------7--7-7-----------9----|
B|-------7--7-7-----------9----|
G|-------7--7-7-----------9----|
D|-------6--6-6-----------7----|
A|-------7--7-7----------------|
E|-0-0-0--------0-0-0-0-0------|

E|-----------------------------|
B|-----------------------------|
G|--------------------------9--|
D|-----------------------------|
A|-----------------------------|
E|-----------------------------|

   E9                      E6  E9
E|-----7---7---------------9-|-------7--7-7------------------|
B|-----7---7---------------9-|-------7--7-7------------------|
G|-----7---7---------------9-|-------7--7-7-----9h11-11-11-9-|
D|-----6---6---------------7-|-------6--6-6-----9-----9--9-9-|
A|-----7---7-----------------|-------7--7-7------------------|
E|-0-0-----------0-0-0-0-0---|-0-0-0--------0-0--------------|

E|---7---7---9---------------|-------------------------------|
B|-9-----------7h8---8p7-----|-------------------------------|
G|-----------------------9---|-----------------------------9-|
D|---------------------------|-------------------------------|
A|---------------------------|-------------------------------|
E|---------------------------|-------------------------------|

   E9                      E6
E|-----------7-------------9--|
B|-------7---7-------------9--|
G|-------7---7-------------9--|
D|-------6---6-------------7--|
A|-------7---7----------------|
E|---0-0---------0-0-0-0-0----|

E|-----7---7-----7---7---7s9--|
B|-8h9---------9--------------|
G|----------------------------|
D|----------------------------|
A|----------------------------|
E|----------------------------|

  E9                             E6  E9                      E6
E|----------7---7---7------------9-|----------7--------------9-|
B|----------7---7---7------------9-|------7---7--------------9-|
G|----------7---7---7------------9-|------7---7--------------9-|
D|----------6---6---6------------7-|------6---6--------------7-|
A|----------7---7---7--------------|------7---7----------------|
E|-0--0--0------------0--0-0-0-0---|--0-0---------0-0-0-0--0---|

E|-12-9---7---------------------|
B|------------8-8---8-7---------|
G|-----------------------9------|
D|------------------------------|
A|------------------------------|
E|------------------------------|

   Gtr IV
E|----------------------17------|
B|---------------------------19-|
G|------------------------------|
D|------------------------------|
A|------------------------------|
E|------------------------------|

   E9
E|---------7-------7--7---------------------||
B|---------7-------7--7---------------------||
G|---------7-------7--7--------9h11-11-11-9-||
D|---------6-------6--6--------9-----9--9-9-||
A|---------7-------7--7---------------------||
E|--0-0--0---------------0--0---------------||

E|-17-------------------19----19s21s19------||
B|------19---(19)-19-17----17-17s19s17------||
G|------------------------------------------||
D|------------------------------------------||
A|------------------------------------------||
E|------------------------------------------||

 Verse Interlude

E|------------()-12-7-12-7-|
B|-------------------------|
G|-------------------------|
D|-------------------------|
A|-------------------------|
E|-------------------------|

   Verse Continues
      E9                      E6
E||-----------7-------------9--|
B||-------7---7-------------9--|
G||-------7---7-------------9--|
D||-------6---6-------------7--|
A||-------7---7----------------|
E||---0-0---------0-0-0-0-0----|

E|-------------------------------||-----7---7-----7---7---7s9--|
B|-------------------------------||-8h9---------9--------------|
G|-----------------------------9-||----------------------------|
D|-------------------------------||----------------------------|
A|-------------------------------||----------------------------|
E|-------------------------------||----------------------------|

   E9                                    E6
E|---------7-----7------7----------------9---|
B|---------7-----7------7----------------9---|
G|---------7-----7------7----------------9---|
D|---------6-----6------6----------------7---|
A|---------7-----7------7--------------------|
E|-0-0--0--------------------0---0-0-0-0-----|

E|-------------------------------------------|
B|-------------------------------------------|
G|-----------------------------------------9-|
D|-------------------------------------------|
A|-------------------------------------------|
E|-------------------------------------------|

   E9                      E6  E9
E|---------7---------------9-|-------7--7-7-------------------||
B|-----7---7---------------9-|-------7--7-7-------------------||
G|-----7---7---------------9-|-------7--7-7-----9h11-11-11-9--||
D|-----6---6---------------7-|-------6--6-6-----9-----9--9-9--||
A|-----7---7-----------------|-------7--7-7-------------------||
E|-0-0-----------0-0-0-0-0---|-0-0-0--------0-0---------------||

E|---7---7---7---------------|
B|-9-----------7h8---8p7-----|
G|-----------------------9---|
D|---------------------------|
A|---------------------------|
E|---------------------------|
Добавлено: 11.01.2014
Другие материалы по этой песне:

Страница создана 16.03.2012
http://primanota.ru/red-hot-chili-peppers/behind-the-sun-chords.htm
Привет, Гость.
Предлагаем пройти революционный курс по гитаре.
Подарок от PrimaNota.Ru, забирай!