PrimaNota.ru - самый крупный в мире бесплатный архив песенных текстов, аккордов, табулатур и нот


Red Guitar - Impostor - таба, видео

Регистрация Запомнить меня
Войти через:  Facebook Google Twitter Vk Yandex Mail.ru

Red Guitar - Impostor - таба, видео

Печатать
Просмотров: 101
-----------------------------------------------------------------------------------------
|                                       RED - IMPOSTOR                                  |
|                               Album: Of Beauty and Rage (2015)                        |
-----------------------------------------------------------------------------------------
           If you have questions or corrections feel free to send me a message:
                        http://profile.ultimate-guitar.com/godspeedy/
                           https://www.facebook.com/Godspeedy14
                           
        Also, check out my Youtube channel: http://www.youtube.com/user/Godspeedy14

                                  Tuning: 6 string AEADF#B 
                                                        
**************************************GUITAR NOTATIONS***********************************
*                                                                                       *
*                                | *   palm mute         |                              *
*                                | x   Mute note         |                              *
*                                | b   bend              |                              *
*                                | r   release           |                              *
*                                | br  bend release      |                              *
*                                                                                       *
*****************************************************************************************

-----------------------------------------------------------------------------------------
|                                    INTRO (00:00-00:44)                                |
-----------------------------------------------------------------------------------------

I. Guitar 1 (w/ clean and reverb)

 B|---------------------------------------|------------------------------------|
F#|---------------------------------------|------------------------------------|
 D|---------------------------------------|------------------------------------| x4
 A|---------------------------------------|------------------------------------|
 E|-----------13------------12------------|-9------------9---------------------|
 A|-0-12-0-12-----0-12-0-12-----0-12-0-12-|----0-12-0-12----0-0-12-0-13-12--12-|
    * *  * *      * *  * *      * *  * *       * *  * *     * * *  * *  *   *

   Guitars 2 and 3 (w/ dist)

4 bars empty, then:

 B|-----------------------|---------------|-----------------------|------------|
F#|-----------------------|---------------|-----------------------|------------|
 D|-----------------------|---------------|-----------------------|------------|
 A|-----------------------|---------------|-----------------------|------------|
 E|-----------------------|---------------|-----------------------|------------|
 A|-0-0----0-0------------|---------------|-0-0----0-0------------|------------|

II. Guitars 1 and 2 (w/ dist)

 B|-------------------------------|---------------------------------|
F#|-------------------------------|---------------------------------|
 D|-------------------------------|---------------------------------| x2
 A|-------------------------------|---------------------------------|
 E|-------------------------------|---------------------------------|
 A|-0-0-0-0-8--0-0-0-0-7--0-0-0-0-|-4-4-4-4-4-4-4-4-5-5-5-5-5-5-5-5-|

-----------------------------------------------------------------------------------------
|                                   VERSE (00:44-01:05)                                 |
-----------------------------------------------------------------------------------------

I. Guitar 1 (w/ clean and reverb)

 B|------------------|------------------|------------------|------------------|
F#|------------------|------------------|------------------|------------------|
 D|------------------|------------------|------------------|------------------|
 A|------------------|------------------|------------------|------------------|
 E|-----------13-----|-----------12-----|-----------9------|-----------9------|
 A|-0-12-0-12--------|-0-12-0-12--------|-0-12-0-12--------|-0-12-0-12--------|

   Guitar 2 (w/ dist)

 B|------------|------------|------------|----------------------------|
F#|------------|------------|------------|----------------------------|
 D|------------|------------|------------|----------------------------|
 A|------------|------------|------------|----------------------------|
 E|------------|------------|------------|----------------------------|
 A|------------|------------|------------|--------0-13-12-0-10-12--12-|

II. Guitars 1 and 2 (w/ dist)

 B|---------------------------------------|------------------------------------|
F#|---------------------------------------|------------------------------------|
 D|---------------------------------------|------------------------------------|
 A|---------------------------------------|------------------------------------|
 E|-----------13------------12------------|-9------------9---------------------|
 A|-0-12-0-12-----0-12-0-12-----0-12-0-12-|----0-12-0-12----0-0-12-0-13-12--12-|

 B|---------------------------------------|------------------------------------------|
F#|---------------------------------------|------------------------------------------|
 D|---------------------------------------|------------------------------------------|
 A|---------------------------------------|------------------------------------------|
 E|-----------13------------12------------|-9----------------------------------------|
 A|-0-12-0-12-----0-12-0-12-----0-12-0-12-|----12-12-13-13-12-12-10-10-12-12-7-7-8-8-|
                                      
-----------------------------------------------------------------------------------------
|                                 PRE-CHORUS (01:05-01:19)                              |
-----------------------------------------------------------------------------------------

Guitars 1 and 2 (w/ dist)

 B|---------------------------------|-------------------------------|
F#|---------------------------------|-------------------------------|
 D|---------------------------------|-------------------------------|
 A|---------------------------------|-------------------------------|
 E|-----5------4--------------------|-----5------4------------------|
 A|-0-0----0-0----0-0-8-7-0-0-13-12-|-0-0----0-0----0-0-8-7-0-0-3br-|

 B|-------------------------|-----------------------------|
F#|-------------------------|-----------------------------|
 D|-------------------------|-----------------------------|
 A|-------------------------|-----------------------------|
 E|----5-----4-----8-----5--|--------------------5-----8--|
 A|-0-----0-----0-----0-----|-0--8-7-0--13-12-0-----0-----|

-----------------------------------------------------------------------------------------
|                                    CHORUS (01:19-01:30)                               |
-----------------------------------------------------------------------------------------

Guitars 1 and 2 (w/ dist)

 B|-------------------------------|---------------------------------|
F#|-------------------------------|---------------------------------|
 D|-------------------------------|---------------------------------| x2
 A|-------------------------------|---------------------------------|
 E|-------------------------------|---------------------------------|
 A|-0-0-0-0-8--0-0-0-0-7--0-0-0-0-|-4-4-4-4-4-4-4-4-5-5-5-5-5-5-5-5-|

-----------------------------------------------------------------------------------------
|                                   VERSE 2 (01:30-01:51)                               |
-----------------------------------------------------------------------------------------
                                        same as VERSE
-----------------------------------------------------------------------------------------
|                                 PRE-CHORUS 2 (01:51-02:01)                            |
-----------------------------------------------------------------------------------------

Guitars 1 and 2 (w/ dist)

 B|---------------------------------|-----------------------------|
F#|---------------------------------|-----------------------------|
 D|---------------------------------|-----------------------------|
 A|---------------------------------|-----------------------------|
 E|-----5------4--------------------|-----5------4----------------|
 A|-0-0----0-0----0-0-8-7-0-0-13-12-|-0-0----0-0----0-0-8-7-3br---|

 B|-------------------------|-----------------------------|
F#|-------------------------|-----------------------------|
 D|-------------------------|-----------------------------|
 A|-------------------------|-----------------------------|
 E|----5-----4-----8-----5--|--------------------5-----8--|
 A|-0-----0-----0-----0-----|-0--8-7-0--13-12-0-----0-----|
                                     
-----------------------------------------------------------------------------------------
|                                   CHORUS 2 (02:01-02:23)                              |
-----------------------------------------------------------------------------------------

Guitars 1 and 2 (w/ dist)

 B|-------------------------------|---------------------------------|
F#|-------------------------------|---------------------------------|
 D|-------------------------------|---------------------------------| x4
 A|-------------------------------|---------------------------------|
 E|-------------------------------|---------------------------------|
 A|-0-0-0-0-8--0-0-0-0-7--0-0-0-0-|-4-4-4-4-4-4-4-4-5-5-5-5-5-5-5-5-|
                                      
-----------------------------------------------------------------------------------------
|                                    BRIDGE (02:23-03:16)                               |
-----------------------------------------------------------------------------------------

Guitars 1 and 2 (w/ dist)

 B|-------------------------|-------------------------|
F#|-------------------------|-------------------------|
 D|-------------------------|-------------------------|
 A|-------------------------|-------------------------|
 E|-------------------------|-------------------------|
 A|-3--3--3--0--3--3--3--0--|-2--2--2--0--2--2--2--0--|

 B|-------------------------|-----------------------|
F#|-------------------------|-----------------------|
 D|-------------------------|-----------------------|
 A|-------------------------|-----------------------|
 E|-------------------------|-----------------------|
 A|-5--5--5--0--5--5--5--0--|-7--7--7--0--7--7--7b--|

then 3 bars empty...

 B|----------|-----------------------------------|----------------------------------|
F#|----------|-----------------------------------|----------------------------------|
 D|----------|-----------------------7-6-----10--|-----------------------6------11--|
 A|----------|-0-0-13-12-0-0-8-7-0-0-x-x-0-0-x---|-0-0-13-12-0-0-8-7-0-0-x--0-0-x---|
 E|----------|-0-0-13-12-0-0-8-7-0-0-5-4-0-0-8---|-0-0-13-12-0-0-8-7-0-0-4--0-0-9---|
 A|------3br-|-0-0-13-12-0-0-8-7-0-0-----0-0-----|-0-0-13-12-0-0-8-7-0-0----0-0-----|

 B|---------------------------------|----------------------------------------|
F#|---------------------------------|----------------------------------------|
 D|-----------------------7------6--|----------------------------------------|
 A|-0-0-13-12-0-0-8-7-0-0-x--0-0-x--|-0-0-8-7-0-0-13-12-0-0-8-7--------------|
 E|-0-0-13-12-0-0-8-7-0-0-5--0-0-4--|-0-0-8-7-0-0-13-12-0-0-8-7--------------|
 A|-0-0-13-12-0-0-8-7-0-0----0-0----|-0-0-8-7-0-0-13-12-0-0-8-7-0---0--x-x-x-|

 B|-----------------------------------|----------------------------------|
F#|-----------------------------------|----------------------------------|
 D|-----------------------7-6-----10--|-----------------------6------11--|
 A|-0-0-13-12-0-0-8-7-0-0-x-x-0-0-x---|-0-0-13-12-0-0-8-7-0-0-x--0-0-x---|
 E|-0-0-13-12-0-0-8-7-0-0-5-4-0-0-8---|-0-0-13-12-0-0-8-7-0-0-4--0-0-9---|
 A|-0-0-13-12-0-0-8-7-0-0-----0-0-----|-0-0-13-12-0-0-8-7-0-0----0-0-----|

 B|---------------------------------|------------------------------------|
F#|---------------------------------|------------------------------------|
 D|-----------------------7------6--|------------------------------------|
 A|-0-0-13-12-0-0-8-7-0-0-x--0-0-x--|-0-0-8-7-0-0-13-12-0-0-8-7-0-0-8-7--|
 E|-0-0-13-12-0-0-8-7-0-0-5--0-0-4--|-0-0-8-7-0-0-13-12-0-0-8-7-0-0-8-7--|
 A|-0-0-13-12-0-0-8-7-0-0----0-0----|-0-0-8-7-0-0-13-12-0-0-8-7-0-0-8-7--|
                          
-----------------------------------------------------------------------------------------
|                                   CHORUS 3 (03:16-04:19)                              |
-----------------------------------------------------------------------------------------

4 bars empty, then:

Guitars 1 and 2 (w/ dist)

 B|-------------------------------|---------------------------------|
F#|-------------------------------|---------------------------------|
 D|-------------------------------|---------------------------------| x4
 A|-------------------------------|---------------------------------|
 E|-------------------------------|---------------------------------|
 A|-0-0-0-0-8--0-0-0-0-7--0-0-0-0-|-4-4-4-4-4-4-4-4-5-5-5-5-5-5-5-5-|

Добавлено: 18.07.2015
Другие материалы по этой песне:
  • Аккорды и текст

Страница создана 18.07.2015
http://primanota.ru/red-guitar/impostor-chords.htm
Привет, Гость.
Предлагаем пройти революционный курс по гитаре.
Подарок от PrimaNota.Ru, забирай!