PrimaNota.ru - самый крупный в мире бесплатный архив песенных текстов, аккордов, табулатур и нот


Rebecca Sugar - Steven Universe - Pearls Theme - таба, видео

Регистрация Запомнить меня
Войти через:  Facebook Google Twitter Vk Yandex Mail.ru

Rebecca Sugar - Steven Universe - Pearls Theme - таба, видео

Печатать
Просмотров: 246
Уроки эстрадного вокала в Санкт-Петербурге
-------------------------------------------------------------------------------
                             Pearl's Theme - Rebecca Sugar
-------------------------------------------------------------------------------
Tabbed by: shark_master9
E-mail:

Tuning: Standard
         Tabbed from original piano piece for person on Reddit.
                                                               Don't slide too fast.
e|-----------5--6--8-----6--5--3--5--6-----5--3--2--5------------------------|
B|----------------------------------------------------3--------345/13--------|
G|---------------------------------------------------------------------------|
D|---------------------------------------------------------------------------|
A|---------------------------------------------------------------------------|
E|---------------------------------------------------------------------------|

e|--6---6---5--3-----------------3--5-6-8--10-13--8--5--6-----3----3--6--10--|
B|---------------3----3--2--1--4-------------------------------3-4-----------|
G|---------------------------------------------------------------------------|
D|---------------------------------------------------------------------------|
A|---------------------------------------------------------------------------|
E|---------------------------------------------------------------------------|

e|--2-------2--5--8------3---3---2---1---0-----------------------------------|
B|----1--3---------------3---3---3---3---3-----------------------------------|
G|-----------------------3---3-----------3-----------------------------------|
D|---------------------------------------5-----------------------------------|
A|---------------------------------------------------------------------------|
E|---------------------------------------------------------------------------|

************************************

| /   slide up
| \   slide down
| h   hammer-on
| p   pull-off
| ~   vibrato
| +   harmonic
| x   Mute note
| b   Bend
| pb  Pre-bend
| br  Bend release
| pbr Pre-bend release
| brb Bend release bend

************************************
Добавлено: 29.10.2015
Другие материалы по этой песне:
  • Аккорды и текст

Страница создана 29.10.2015
http://primanota.ru/rebecca-sugar/steven-universe-pearls-theme-chords.htm
Привет, Гость.
Предлагаем пройти революционный курс по гитаре.
Подарок от PrimaNota.Ru, забирай!