PrimaNota.ru - самый крупный в мире бесплатный архив песенных текстов, аккордов, табулатур и нот


Rebecca Sugar - We Are The Crystal Gems Steven Universe Theme Song - таба, видео

Регистрация Запомнить меня
Войти через:  Facebook Google Twitter Vk Yandex Mail.ru

Rebecca Sugar - We Are The Crystal Gems Steven Universe Theme Song - таба, видео

Печатать
Просмотров: 283
I did this by ear so if anything is wrong pls let me know :]
This is my first tab aaaa i love steven universe!! *o*

We are the crystal gems
e|---------------------------------------------------------------|
B|---------------------------------------------------------------|
G|---------------------------------------------------------------|
D|---------------------------------------------------------------|
A|-0-9-7-5-7-4---------------------------------------------------|
E|---------------------------------------------------------------|

We'll always save the day
e|---------------------------------------------------------------|
B|---------------------------------------------------------------|
G|---------------------------------------------------------------|
D|---------------------------------------------------------------|
A|-0-9-7-5-4-5---------------------------------------------------|
E|---------------------------------------------------------------|

And if you think we can't
e|---------------------------------------------------------------|
B|---------------------------------------------------------------|
G|---------------------------------------------------------------|
D|-----------9---------------------------------------------------|
A|-0-9-7-5-4-----------------------------------------------------|
E|---------------------------------------------------------------|

We'll always find a way
e|---------------------------------------------------------------|
B|---------------------------------------------------------------|
G|---------------------------------------------------------------|
D|---------------------------------------------------------------|
A|-0-9-7-9-10-9--------------------------------------------------|
E|---------------------------------------------------------------|

That's why the people of this world
e|---------------------------------------------------------------|
B|---------------------------------------------------------------|
G|---------------------------------------------------------------|
D|---------------1-----------------------------------------------|
A|-0-9-7-5-7-4-2-------------------------------------------------|
E|---------------------------------------------------------------|

Believe in
e|---------------------------------------------------------------|
B|---------------------------------------------------------------|
G|-4-4-2---------------------------------------------------------|
D|---------------------------------------------------------------|
A|---------------------------------------------------------------|
E|---------------------------------------------------------------|

Garnet, Amethyst, and Pearl
e|---------------------------------------------------------------|
B|---------------------------------------------------------------|
G|---------------------------------------------------------------|
D|-----9---------------------------------------------------------|
A|-9-7---7-5-0-9-------------------------------------------------|
E|---------------------------------------------------------------|

anD STEVEN!!
Добавлено: 29.10.2015
Другие материалы по этой песне:
  • Аккорды и текст

Страница создана 29.10.2015
http://primanota.ru/rebecca-sugar/we-are-crystal-gems-steven-universe-theme-song-chords.htm
Привет, Гость.
Предлагаем пройти революционный курс по гитаре.
Подарок от PrimaNota.Ru, забирай!