PrimaNota.ru - самый крупный в мире бесплатный архив песенных текстов, аккордов, табулатур и нот


Rancid - Crane Fist - текст песни, таба, бас-таба, видео

Регистрация Запомнить меня
Войти через:  Facebook Google Twitter Vk Yandex Mail.ru

Rancid - Crane Fist - текст песни, таба, бас-таба, видео

Печатать
Просмотров: 237
For most of the song, you play this little riff, based
around C7 and F#7

E------8----x---8--------------------------------|
B------8----x---8----7-----7-7-7-7-7-7-----------|
G------9----x---9----9-----9-9-9-9-9-9-----------|
D-----------x--------8-----8-8-8-8-8-8-----------|
A--10-------x--------9-----9-9-9-9-9-9-----------|
E---8--------------------------------------------|

Then, behind the solo, you play open C, then open E
(x32101 then 022100)

Solo:  play 2X's
E--0----------------------------|
B-----0--1------0--1s3--1s3--0--| 
G-------------------------------|
D-------------------------------|
A-------------------------------|
E-------------------------------|

Добавлено: 27.07.2012
Другие материалы по этой песне:
  • Аккорды и текст

Страница создана 21.03.2012
http://primanota.ru/rancid/crane-fist-chords.htm
Привет, Гость.
Предлагаем пройти революционный курс по гитаре.
Подарок от PrimaNota.Ru, забирай!