PrimaNota.ru - самый крупный в мире бесплатный архив песенных текстов, аккордов, табулатур и нот


Ramones - Sitting in my Room - текст песни, таба, видео

Регистрация Запомнить меня
Войти через:  Facebook Google Twitter Vk Yandex Mail.ru

Ramones - Sitting in my Room - текст песни, таба, видео

Печатать
Просмотров: 135
Sitting in my Room
___________________

Band:  Ramones
Album: Pleasant Dreams

Tuning: Standard

~ ring out
b bend
r release
/ slide up


Intro / Interlude

e|---------------------|
b|---------------------|
g|----------------2~---|  3 Times
D|------------0-2-0-~--|
A|------0-2-3----------|
E|--3-3----------------|


Verse

e|-------------------------------------------------------------------|
b|--3--3-3-3-3-3-3-2-------------------------------------------------|
g|--2--2-2-2-2-2-2-2--2--2-2-2-2-2-2---------------------------------|  (twice)
D|--0--0-0-0-0-0-0-0--2--2-2-2-2-2-2--5--5-5-9-9-9-9-7--7-7-7-7-7-7--|
A|--------------------0--0-0-0-0-0-0--5--5-5-9-9-9-9-7--7-7-7-7-7-7--|
E|------------------------------------3--3-3-7-7-7-7-5--5-5-5-5-5-5--|


e|-------------------------------------------------------------------|
b|--3--3-3-3-3-3-3-2-------------------------------------------------|
g|--2--2-2-2-2-2-2-2--2--2-2-2-2-2-2---------------------------------|
D|--0--0-0-0-0-0-0-0--2--2-2-2-2-2-2--5--5-5-8-8-8-8-7--7-7-7-7-7-7--|
A|--------------------0--0-0-0-0-0-0--5--5-5-8-8-8-8-7--7-7-7-7-7-7--|
E|------------------------------------3--3-3-6-6-6-6-5--5-5-5-5-5-5--|


Pre-Chorus/Bridge or so

e|----------------------------------------------------------------|
b|----------------------------------------------------------------|
g|---------------------------------7--7-7-7-7-7-7-7--7-7-7-7-7-7--|  3 Times
D|--/7--7-7-7-7-7-7-7--7-7-7-7-7-7-7--7-7-7-7-7-7-7--7-7-7-7-7-7--|
A|--/7--7-7-7-7-7-7-7--7-7-7-7-7-7-5--5-5-5-5-5-5-5--5-5-5-5-5-5--|
E|--/5--5-5-5-5-5-5-5--5-5-5-5-5-5--------------------------------|


Chorus

e|---------------------------------|
b|---------------------------------|
g|--5--5-5-5-5-5-5-----------------|  4 Times
D|--5--5-5-5-5-5-5-5--5-5-5-5-5-5--|
A|--3--3-3-3-3-3-3-5--5-5-5-5-5-5--|
E|-----------------3--3-3-3-3-3-3--|


once again


then

Intro / Interlude

e|---------------------|
b|---------------------|
g|----------------2~---|  just once
D|------------0-2-0-~--|
A|------0-2-3----------|
E|--3-3----------------|

e|-------------------------------------------------------|
b|--3--3-3-3-3-3-3-2-------------------------------------|
g|--2--2-2-2-2-2-2-2--2--2-2-2-2-2-2----------------2~---|  4 Times
D|--0--0-0-0-0-0-0-0--2--2-2-2-2-2-2------------0-2-0~---|
A|--------------------0--0-0-0-0-0-0------0-2-3----------|
E|------------------------------------3-3----------------|


e|----------------------------------------------------------|
b|----------------------------------------------------------|
g|--2--2--4--4b6r4--2-----------------------------------2~--|  3 Times
D|--0--0--0--0------0--2--2--4--4b6r4--2------------0-2-0~--|
A|---------------------0--0--0--0------0------0-2-3---------|
E|----------------------------------------3-3---------------|


End


Enjoy :-)


If somebody know the concrete meaning of the song, please write in the comments. Thank you.
Добавлено: 13.07.2015
Другие материалы по этой песне:
  • Аккорды и текст

Страница создана 20.03.2012
http://primanota.ru/ramones/sitting-in-my-room-chords.htm
Привет, Гость.
Предлагаем пройти революционный курс по гитаре.
Подарок от PrimaNota.Ru, забирай!