PrimaNota.ru - самый крупный в мире бесплатный архив песенных текстов, аккордов, табулатур и нот


Ramones - Im Affected - текст песни, бас-таба, видео

Регистрация Запомнить меня
Войти через:  Facebook Google Twitter Vk Yandex Mail.ru

Ramones - Im Affected - текст песни, бас-таба, видео

Печатать
Просмотров: 190
Уроки эстрадного вокала в Санкт-Петербурге
Авторы: Joey Ramone, Johnny Ramone, Dee Dee Ramone

RAMONES - IM AFFECTED


intro:
G|-----------------------------------|
D|--------4---4---4---------2--------|
A|--05--4---4---4---4--0--2---2-0----|X4
E|-----------------------------------|

intro part II:
G|--------------------------------------------|
D|------------------555-----------------------|()*-> you can play it or not
A|--(050)*-7-777777-----5-55555---------------|X3
E|--------------------------------------------|


G|----------------------|
D|----------------------|
A|---7-77777777777777---|
E|----------------------|

Verse & chorus:
G|--------------------------------------------|
D|---77777777-33333-5555555-------------------|
A|--------------------------------------------|X7
E|--------------------------------------------|

G|----------------------|
D|----7-7777777777777---|
A|----------------------|
E|----------------------|


Bridge:

G|--------------------------------------------------------------|
D|-55555555555-777777777777-33333333333333-555555555-22222222---|
A|--------------------------------------------------------------|
E|--------------------------------------------------------------|

Verse & chorus:
G|--------------------------------------------|
D|---77777777-33333-5555555-------------------|
A|--------------------------------------------|X7
E|--------------------------------------------|

G|----------------------|
D|----7-7777777777777---|
A|----------------------|
E|----------------------|

Bridge:

G|-----------------------------------------------------|
D|-55555555555-777777777777-33333333333333-555555555---|
A|-----------------------------------------------------|
E|-----------------------------------------------------|

Solo:

G|-----------------------------------|
D|--------4---4---4---------2--------|
A|--05--4---4---4---4--0--2---2-0----|X4
E|-----------------------------------|

G|--------------------------------------------|
D|------------------555-----------------------|()*-> you can play it or not
A|--(050)*-7-777777-----5-55555---------------|X3
E|--------------------------------------------|


G|----------------------|
D|----------------------|
A|---7-77777777777777---|
E|----------------------|

Then play this till end:

G|--------------------------------------------|
D|---77777777-33333-5555555-------------------|
A|--------------------------------------------|
E|--------------------------------------------|





GOODBYE!


LISTEN ROMALONES:   www.purevolume.com/romalones_punk_ramone
                    www.purevolume.com/romalonesramone
                    www.fotolog.com/9rr


ARKY ROMALONE
Добавлено: 14.06.2012
Другие материалы по этой песне:
  • Аккорды и текст

Страница создана 14.06.2012
http://primanota.ru/ramones/im-affected-chords.htm
Привет, Гость.
Предлагаем пройти революционный курс по гитаре.
Подарок от PrimaNota.Ru, забирай!