PrimaNota.ru - самый крупный в мире бесплатный архив песенных текстов, аккордов, табулатур и нот


Rainbow - Sixteenth Century Greensleeves - текст песни, таба, видео

Регистрация Запомнить меня
Войти через:  Facebook Google Twitter Vk Yandex Mail.ru

Rainbow - Sixteenth Century Greensleeves - текст песни, таба, видео

Печатать
Просмотров: 329
Авторы: Ronnie James Dio, Ritchie Blackmore

SIXTEENTH-CENTURY GREENSLEEVES
------------------------------------------------------------------------------|
------------------------------------------------------------------------------|
--9-10-9-7-9-7h9p7------------------------------------------------------------|
-------------------9--7h8p7-5-7-5h7p5--9--7-------5---------------------------|
---------------------------------------9--7-------5---------------------------|
---------------------------------------7--5-------3---------------------------|

------------------------------------------------------------------------------|
------------------------------------------------------------------------------|
--------------7-------9-10-9-7-9--7h9p7---------------------------------------|
--9-9--7-9-9--7-9-9---------------------9-7-----------------------------------|
--9-9--7-9-9--5-9-9-----------------------------------------------------------|
--7-7--5-7-7----7-7-----------------------------------------------------------|
  Main riff


------------------------------3----5----3---5---------------------------------|
------------------------------3----5----3---5---------------------------------|
-------------9--9-------------4----6----4---6-----------7h9p7--------7h9p7----|
-9--9--9--9--9--9--9--9-------5----7----5---7--7-9--7-9-------9--7-9-------9--|
-9--9--9--9--7--7--9--9-------5----7----5---7--7-9----------------------------|
-7--7--7--7--------7--7-------3----5----3---5--5-7----------------------------|
                        This would be rythym
guitar(not on record in studio)

----------------------------|-------------------------------------------------|
--------------------7-------|----------------7--------------------------------|
--7-7-7-7-6-6-7-7/9---9-7---|-6-7----9-9-7h9----------------------------------|
----------------------------|------------------9------------------------------|
----------------------------|-------------------------------------------------|
----------------------------|-------------------------------------------------|
 "meet me when the sun . .    2nd time


------------------------------------------------------------------------------|
------------------------------------------------------------------------------|
---7--7---6--6---7--7---9--9--------------------------------------------------|
-----------------------------------9------------------------------------------|
-----------------------------------9------------------------------------------|
------------------------------5----7------------------------------------------|
 "Greensleeves waiting . . .


-------------------------------------------|----------------------------------|
-------------------------------------------|----------------------------------|
-------------------------------------------|----------------------------------|
-9--9--9--9--5--5--5--5--------------------|----------------------------------|
-9--9--9--9--5--5--5--5--------------------|----------------------------------|
-7--7--7--7--3--3--3--3--------------------|----------------------------------|
 Solo backing(not on record) - follow bass


------------------------------------------------------------------------------|
------------------------------------------------------------------------------|
------------------------------------------------------------------------------|
--9--9--9--9--7--7--7--7--4--4--4--4--5--5--5--5------------------------------|
--9--9--9--9--7--7--7--7--4--4--4--4--5--5--5--5------------------------------|
--7--7--7--7--5--5--5--5--2--2--2--2--3--3--3--3------------------------------|
  3rd time


------------------------------------------------------------------------------|
------------------------------------------------------------------------------|
------------------7-----9h10p9-7-9-7h9p7--------------------------------------|
-------9-9--7-9-9---9-9------------------9-7----------------------------------|
------------------------------------------------------------------------------|
------------------------------------------------------------------------------|
 ". . . fire!"                                 now
main riff

------------------------------------------------------------------------------|
------------------7-7--10-10--------------------------------------------------|
--7-7-6---7-7-9---------------------------------------------------------------|
------------------------------------------------------------------------------|
------------------------------------------------------------------------------|
------------------------------------------------------------------------------|
 "No more light . . ."
Добавлено: 21.04.2012
Другие материалы по этой песне:

Страница создана 24.03.2012
http://primanota.ru/rainbow/sixteenth-century-greensleeves-chords.htm
Привет, Гость.
Предлагаем пройти революционный курс по гитаре.
Подарок от PrimaNota.Ru, забирай!